  0
SECTION
  2
HEADER
  9
$ACADVER
  1
AC1021
  9
$ACADMAINTVER
 70
    50
  9
$DWGCODEPAGE
  3
ANSI_1252
  9
$LASTSAVEDBY
  1
DBrewer
  9
$INSBASE
 10
0.0
 20
0.0
 30
0.0
  9
$EXTMIN
 10
-0.5007628928861117
 20
-0.5005798074410066
 30
-0.0000000349181948
  9
$EXTMAX
 10
11.50064091885005
 20
9.000579895919351
 30
0.0000000814935746
  9
$LIMMIN
 10
0.0
 20
0.0
  9
$LIMMAX
 10
12.0
 20
9.0
  9
$ORTHOMODE
 70
     1
  9
$REGENMODE
 70
     1
  9
$FILLMODE
 70
     1
  9
$QTEXTMODE
 70
     0
  9
$MIRRTEXT
 70
     1
  9
$LTSCALE
 40
0.25
  9
$ATTMODE
 70
     1
  9
$TEXTSIZE
 40
0.07
  9
$TRACEWID
 40
0.05
  9
$TEXTSTYLE
  7
ARIAL2
  9
$CLAYER
  8
PAPER
  9
$CELTYPE
  6
BYLAYER
  9
$CECOLOR
 62
   256
  9
$CELTSCALE
 40
1.0
  9
$DISPSILH
 70
     0
  9
$DIMSCALE
 40
1.0
  9
$DIMASZ
 40
0.07
  9
$DIMEXO
 40
0.09
  9
$DIMDLI
 40
0.38
  9
$DIMRND
 40
0.0
  9
$DIMDLE
 40
0.0
  9
$DIMEXE
 40
0.06
  9
$DIMTP
 40
0.0
  9
$DIMTM
 40
0.0
  9
$DIMTXT
 40
0.07
  9
$DIMCEN
 40
0.09
  9
$DIMTSZ
 40
0.0
  9
$DIMTOL
 70
     0
  9
$DIMLIM
 70
     0
  9
$DIMTIH
 70
     0
  9
$DIMTOH
 70
     0
  9
$DIMSE1
 70
     0
  9
$DIMSE2
 70
     0
  9
$DIMTAD
 70
     1
  9
$DIMZIN
 70
     0
  9
$DIMBLK
  1

  9
$DIMASO
 70
     1
  9
$DIMSHO
 70
     0
  9
$DIMPOST
  1

  9
$DIMAPOST
  1

  9
$DIMALT
 70
     0
  9
$DIMALTD
 70
     2
  9
$DIMALTF
 40
25.4
  9
$DIMLFAC
 40
1.0
  9
$DIMTOFL
 70
     0
  9
$DIMTVP
 40
0.0
  9
$DIMTIX
 70
     1
  9
$DIMSOXD
 70
     0
  9
$DIMSAH
 70
     0
  9
$DIMBLK1
  1

  9
$DIMBLK2
  1

  9
$DIMSTYLE
  2
STANDARD
  9
$DIMCLRD
 70
     0
  9
$DIMCLRE
 70
     0
  9
$DIMCLRT
 70
     0
  9
$DIMTFAC
 40
1.0
  9
$DIMGAP
 40
0.09
  9
$DIMJUST
 70
     0
  9
$DIMSD1
 70
     0
  9
$DIMSD2
 70
     0
  9
$DIMTOLJ
 70
     1
  9
$DIMTZIN
 70
     0
  9
$DIMALTZ
 70
     0
  9
$DIMALTTZ
 70
     0
  9
$DIMUPT
 70
     0
  9
$DIMDEC
 70
     4
  9
$DIMTDEC
 70
     4
  9
$DIMALTU
 70
     2
  9
$DIMALTTD
 70
     2
  9
$DIMTXSTY
  7
STANDARD
  9
$DIMAUNIT
 70
     0
  9
$DIMADEC
 70
     0
  9
$DIMALTRND
 40
0.0
  9
$DIMAZIN
 70
     0
  9
$DIMDSEP
 70
    46
  9
$DIMATFIT
 70
     3
  9
$DIMFRAC
 70
     0
  9
$DIMLDRBLK
  1

  9
$DIMLUNIT
 70
     2
  9
$DIMLWD
 70
    -2
  9
$DIMLWE
 70
    -2
  9
$DIMTMOVE
 70
     2
  9
$DIMFXL
 40
1.0
  9
$DIMFXLON
 70
     0
  9
$DIMJOGANG
 40
0.7853981633974483
  9
$DIMTFILL
 70
     0
  9
$DIMTFILLCLR
 70
     0
  9
$DIMARCSYM
 70
     0
  9
$DIMLTYPE
  6

  9
$DIMLTEX1
  6

  9
$DIMLTEX2
  6

  9
$LUNITS
 70
     2
  9
$LUPREC
 70
     4
  9
$SKETCHINC
 40
0.1
  9
$FILLETRAD
 40
0.0277878858050222
  9
$AUNITS
 70
     0
  9
$AUPREC
 70
     0
  9
$MENU
  1
ACAD
  9
$ELEVATION
 40
0.0
  9
$PELEVATION
 40
0.0
  9
$THICKNESS
 40
0.0
  9
$LIMCHECK
 70
     0
  9
$CHAMFERA
 40
0.0
  9
$CHAMFERB
 40
0.0
  9
$CHAMFERC
 40
0.0
  9
$CHAMFERD
 40
0.0
  9
$SKPOLY
 70
     0
  9
$TDCREATE
 40
2449766.694442709
  9
$TDUCREATE
 40
2449766.861109375
  9
$TDUPDATE
 40
2455709.560954965
  9
$TDUUPDATE
 40
2455709.727621632
  9
$TDINDWG
 40
0.0620051273
  9
$TDUSRTIMER
 40
0.0620051273
  9
$USRTIMER
 70
     1
  9
$ANGBASE
 50
0.0
  9
$ANGDIR
 70
     0
  9
$PDMODE
 70
     0
  9
$PDSIZE
 40
0.0
  9
$PLINEWID
 40
0.0
  9
$SPLFRAME
 70
     0
  9
$SPLINETYPE
 70
     6
  9
$SPLINESEGS
 70
     8
  9
$HANDSEED
  5
7F1
  9
$SURFTAB1
 70
     6
  9
$SURFTAB2
 70
     6
  9
$SURFTYPE
 70
     6
  9
$SURFU
 70
     6
  9
$SURFV
 70
     6
  9
$UCSBASE
  2

  9
$UCSNAME
  2

  9
$UCSORG
 10
0.0
 20
0.0
 30
0.0
  9
$UCSXDIR
 10
1.0
 20
0.0
 30
0.0
  9
$UCSYDIR
 10
0.0
 20
1.0
 30
0.0
  9
$UCSORTHOREF
  2

  9
$UCSORTHOVIEW
 70
     0
  9
$UCSORGTOP
 10
0.0
 20
0.0
 30
0.0
  9
$UCSORGBOTTOM
 10
0.0
 20
0.0
 30
0.0
  9
$UCSORGLEFT
 10
0.0
 20
0.0
 30
0.0
  9
$UCSORGRIGHT
 10
0.0
 20
0.0
 30
0.0
  9
$UCSORGFRONT
 10
0.0
 20
0.0
 30
0.0
  9
$UCSORGBACK
 10
0.0
 20
0.0
 30
0.0
  9
$PUCSBASE
  2

  9
$PUCSNAME
  2

  9
$PUCSORG
 10
0.0
 20
0.0
 30
0.0
  9
$PUCSXDIR
 10
1.0
 20
0.0
 30
0.0
  9
$PUCSYDIR
 10
0.0
 20
1.0
 30
0.0
  9
$PUCSORTHOREF
  2

  9
$PUCSORTHOVIEW
 70
     0
  9
$PUCSORGTOP
 10
0.0
 20
0.0
 30
0.0
  9
$PUCSORGBOTTOM
 10
0.0
 20
0.0
 30
0.0
  9
$PUCSORGLEFT
 10
0.0
 20
0.0
 30
0.0
  9
$PUCSORGRIGHT
 10
0.0
 20
0.0
 30
0.0
  9
$PUCSORGFRONT
 10
0.0
 20
0.0
 30
0.0
  9
$PUCSORGBACK
 10
0.0
 20
0.0
 30
0.0
  9
$USERI1
 70
     0
  9
$USERI2
 70
     0
  9
$USERI3
 70
     0
  9
$USERI4
 70
     0
  9
$USERI5
 70
     0
  9
$USERR1
 40
0.0
  9
$USERR2
 40
0.0
  9
$USERR3
 40
0.0
  9
$USERR4
 40
0.0
  9
$USERR5
 40
0.0
  9
$WORLDVIEW
 70
     1
  9
$SHADEDGE
 70
     3
  9
$SHADEDIF
 70
    70
  9
$TILEMODE
 70
     1
  9
$MAXACTVP
 70
    16
  9
$PINSBASE
 10
0.0
 20
0.0
 30
0.0
  9
$PLIMCHECK
 70
     0
  9
$PEXTMIN
 10
1.000000000000000E+20
 20
1.000000000000000E+20
 30
1.000000000000000E+20
  9
$PEXTMAX
 10
-1.000000000000000E+20
 20
-1.000000000000000E+20
 30
-1.000000000000000E+20
  9
$PLIMMIN
 10
0.0
 20
0.0
  9
$PLIMMAX
 10
12.0
 20
9.0
  9
$UNITMODE
 70
     0
  9
$VISRETAIN
 70
     0
  9
$PLINEGEN
 70
     0
  9
$PSLTSCALE
 70
     0
  9
$TREEDEPTH
 70
  3020
  9
$CMLSTYLE
  2
STANDARD
  9
$CMLJUST
 70
     0
  9
$CMLSCALE
 40
1.0
  9
$PROXYGRAPHICS
 70
     1
  9
$MEASUREMENT
 70
     0
  9
$CELWEIGHT
370
    -1
  9
$ENDCAPS
280
     0
  9
$JOINSTYLE
280
     0
  9
$LWDISPLAY
290
     0
  9
$INSUNITS
 70
     0
  9
$HYPERLINKBASE
  1

  9
$STYLESHEET
  1
monochrome.ctb
  9
$XEDIT
290
     1
  9
$CEPSNTYPE
380
     0
  9
$PSTYLEMODE
290
     1
  9
$FINGERPRINTGUID
  2
{5F155A80-EE4E-11D4-8FEA-0001036949CE}
  9
$VERSIONGUID
  2
{4DE6EFFB-5D14-4834-8458-4F8B71573B9D}
  9
$EXTNAMES
290
     1
  9
$PSVPSCALE
 40
0.0
  9
$OLESTARTUP
290
     0
  9
$SORTENTS
280
   127
  9
$INDEXCTL
280
     0
  9
$HIDETEXT
280
     0
  9
$XCLIPFRAME
290
     0
  9
$HALOGAP
280
     0
  9
$OBSCOLOR
 70
   257
  9
$OBSLTYPE
280
     0
  9
$INTERSECTIONDISPLAY
280
     0
  9
$INTERSECTIONCOLOR
 70
   257
  9
$DIMASSOC
280
     1
  9
$PROJECTNAME
  1

  9
$CAMERADISPLAY
290
     0
  9
$LENSLENGTH
 40
50.0
  9
$CAMERAHEIGHT
 40
0.0
  9
$STEPSPERSEC
 40
2.0
  9
$STEPSIZE
 40
6.0
  9
$3DDWFPREC
 40
2.0
  9
$PSOLWIDTH
 40
0.25
  9
$PSOLHEIGHT
 40
4.0
  9
$LOFTANG1
 40
1.570796326794896
  9
$LOFTANG2
 40
1.570796326794896
  9
$LOFTMAG1
 40
0.0
  9
$LOFTMAG2
 40
0.0
  9
$LOFTPARAM
 70
     7
  9
$LOFTNORMALS
280
     1
  9
$LATITUDE
 40
37.795
  9
$LONGITUDE
 40
-122.394
  9
$NORTHDIRECTION
 40
0.0
  9
$TIMEZONE
 70
 -8000
  9
$LIGHTGLYPHDISPLAY
280
     1
  9
$TILEMODELIGHTSYNCH
280
     1
  9
$CMATERIAL
347
682
  9
$SOLIDHIST
280
     1
  9
$SHOWHIST
280
     1
  9
$DWFFRAME
280
     2
  9
$DGNFRAME
280
     0
  9
$REALWORLDSCALE
290
     1
  9
$INTERFERECOLOR
 62
     1
  9
$INTERFEREOBJVS
345
6A4
  9
$INTERFEREVPVS
346
6A1
  9
$CSHADOW
280
     0
  9
$SHADOWPLANELOCATION
 40
0.0
  0
ENDSEC
  0
SECTION
  2
CLASSES
  0
CLASS
  1
DICTIONARYVAR
  2
AcDbDictionaryVar
  3
ObjectDBX Classes
 90
        0
 91
       17
280
     0
281
     0
  0
CLASS
  1
ACDBDICTIONARYWDFLT
  2
AcDbDictionaryWithDefault
  3
ObjectDBX Classes
 90
        0
 91
        1
280
     0
281
     0
  0
CLASS
  1
MATERIAL
  2
AcDbMaterial
  3
ObjectDBX Classes
 90
     1153
 91
        3
280
     0
281
     0
  0
CLASS
  1
VISUALSTYLE
  2
AcDbVisualStyle
  3
ObjectDBX Classes
 90
     4095
 91
       24
280
     0
281
     0
  0
CLASS
  1
TABLESTYLE
  2
AcDbTableStyle
  3
ObjectDBX Classes
 90
     4095
 91
        1
280
     0
281
     0
  0
CLASS
  1
SCALE
  2
AcDbScale
  3
ObjectDBX Classes
 90
     1153
 91
       17
280
     0
281
     0
  0
CLASS
  1
MLEADERSTYLE
  2
AcDbMLeaderStyle
  3
ACDB_MLEADERSTYLE_CLASS
 90
     4095
 91
        1
280
     0
281
     0
  0
CLASS
  1
CELLSTYLEMAP
  2
AcDbCellStyleMap
  3
ObjectDBX Classes
 90
     1152
 91
        4
280
     0
281
     0
  0
ENDSEC
  0
SECTION
  2
TABLES
  0
TABLE
  2
VPORT
  5
8
330
0
100
AcDbSymbolTable
 70
     1
  0
VPORT
  5
67F
330
8
100
AcDbSymbolTableRecord
100
AcDbViewportTableRecord
  2
*Active
 70
     0
 10
0.0
 20
0.0
 11
1.0
 21
1.0
 12
5.142620505717363
 22
4.287753794556785
 13
0.0
 23
0.0
 14
0.03125
 24
0.03125
 15
0.0
 25
0.0
 16
0.0
 26
0.0
 36
1.0
 17
0.3573185072646075
 27
-0.0377537503176128
 37
-0.833359574243258
 40
9.566654073022325
 41
1.448863636363636
 42
50.0
 43
0.0
 44
0.0
 50
0.0
 51
0.0
 71
     0
 72
   100
 73
     1
 74
     0
 75
     0
 76
     0
 77
     0
 78
     0
281
     0
 65
     1
110
0.0
120
0.0
130
0.0
111
1.0
121
0.0
131
0.0
112
0.0
122
1.0
132
0.0
 79
     0
146
0.0
348
6A0
 60
     3
 61
     5
292
     1
282
     1
141
0.0
142
0.0
 63
   250
421
  3355443
  0
ENDTAB
  0
TABLE
  2
LTYPE
  5
5
330
0
100
AcDbSymbolTable
 70
     5
  0
LTYPE
  5
11
330
5
100
AcDbSymbolTableRecord
100
AcDbLinetypeTableRecord
  2
BYBLOCK
 70
     0
  3

 72
    65
 73
     0
 40
0.0
  0
LTYPE
  5
12
330
5
100
AcDbSymbolTableRecord
100
AcDbLinetypeTableRecord
  2
BYLAYER
 70
     0
  3

 72
    65
 73
     0
 40
0.0
  0
LTYPE
  5
13
330
5
100
AcDbSymbolTableRecord
100
AcDbLinetypeTableRecord
  2
CONTINUOUS
 70
     0
  3
Solid line
 72
    65
 73
     0
 40
0.0
  0
LTYPE
  5
24
330
5
100
AcDbSymbolTableRecord
100
AcDbLinetypeTableRecord
  2
CENTER
 70
     0
  3
____ _ ____ _ ____ _ ____ _ ____ _ ____ _ ____
 72
    65
 73
     4
 40
2.0
 49
1.25
 74
     0
 49
-0.25
 74
     0
 49
0.25
 74
     0
 49
-0.25
 74
     0
  0
LTYPE
  5
25
330
5
100
AcDbSymbolTableRecord
100
AcDbLinetypeTableRecord
  2
HIDDEN
 70
     0
  3
_ _ _ _ _ _ _ _ _ _ _ _ _ _ _ _ _ _ _ _ _ _ _
 72
    65
 73
     2
 40
0.375
 49
0.25
 74
     0
 49
-0.125
 74
     0
  0
LTYPE
  5
26
330
5
100
AcDbSymbolTableRecord
100
AcDbLinetypeTableRecord
  2
PHANTOM
 70
     0
  3
_____ _ _ _____ _ _ _____ _ _ _____ _ _ ____
 72
    65
 73
     6
 40
2.5
 49
1.25
 74
     0
 49
-0.25
 74
     0
 49
0.25
 74
     0
 49
-0.25
 74
     0
 49
0.25
 74
     0
 49
-0.25
 74
     0
  0
ENDTAB
  0
TABLE
  2
LAYER
  5
2
102
{ACAD_XDICTIONARY
360
6D4
102
}
330
0
100
AcDbSymbolTable
 70
     3
  0
LAYER
  5
E
102
{ACAD_XDICTIONARY
360
6E4
102
}
330
2
100
AcDbSymbolTableRecord
100
AcDbLayerTableRecord
  2
0
 70
     0
 62
     7
  6
CONTINUOUS
370
    -3
390
5A3
347
692
  0
LAYER
  5
29
102
{ACAD_XDICTIONARY
360
6E6
102
}
330
2
100
AcDbSymbolTableRecord
100
AcDbLayerTableRecord
  2
PAPER
 70
     0
 62
     2
  6
CONTINUOUS
370
    -3
390
5A3
347
692
  0
LAYER
  5
2B
330
2
100
AcDbSymbolTableRecord
100
AcDbLayerTableRecord
  2
DEFPOINTS
 70
     0
 62
     7
  6
CONTINUOUS
290
     0
370
    -3
390
5A3
347
692
  0
ENDTAB
  0
TABLE
  2
STYLE
  5
3
330
0
100
AcDbSymbolTable
 70
     9
  0
STYLE
  5
F
330
3
100
AcDbSymbolTableRecord
100
AcDbTextStyleTableRecord
  2
STANDARD
 70
     0
 40
0.0
 41
1.0
 50
0.0
 71
     0
 42
0.07
  3
ROMANS
  4

  0
STYLE
  5
22
330
3
100
AcDbSymbolTableRecord
100
AcDbTextStyleTableRecord
  2
ROMANT
 70
     0
 40
0.0
 41
1.0
 50
0.0
 71
     0
 42
0.06
  3
romant
  4

  0
STYLE
  5
23
330
3
100
AcDbSymbolTableRecord
100
AcDbTextStyleTableRecord
  2
B
 70
     0
 40
0.0
 41
1.0
 50
0.0
 71
     0
 42
0.07
  3
romand
  4

  0
STYLE
  5
5AC
330
3
100
AcDbSymbolTableRecord
100
AcDbTextStyleTableRecord
  2
arial1
 70
     0
 40
0.0
 41
1.0
 50
0.0
 71
     0
 42
0.07
  3
ARIAL.TTF
  4

1001
ACAD
1000
Arial
1071
       34
  0
STYLE
  5
5AE
330
3
100
AcDbSymbolTableRecord
100
AcDbTextStyleTableRecord
  2
arialb
 70
     0
 40
0.0
 41
1.0
 50
0.0
 71
     0
 42
0.07
  3
ARIBLK.TTF
  4

1001
ACAD
1000
Arial Black
1071
       34
  0
STYLE
  5
657
330
3
100
AcDbSymbolTableRecord
100
AcDbTextStyleTableRecord
  2
ARIAL2
 70
     0
 40
0.0
 41
1.0
 50
0.0
 71
     0
 42
0.07
  3
ARIALBD.TTF
  4

1001
ACAD
1000
Arial
1071
 33554466
  0
ENDTAB
  0
TABLE
  2
VIEW
  5
6
330
0
100
AcDbSymbolTable
 70
     2
  0
ENDTAB
  0
TABLE
  2
UCS
  5
7
330
0
100
AcDbSymbolTable
 70
     0
  0
ENDTAB
  0
TABLE
  2
APPID
  5
9
330
0
100
AcDbSymbolTable
 70
     3
  0
APPID
  5
10
330
9
100
AcDbSymbolTableRecord
100
AcDbRegAppTableRecord
  2
ACAD
 70
     0
  0
APPID
  5
6E2
330
9
100
AcDbSymbolTableRecord
100
AcDbRegAppTableRecord
  2
ACAD_EXEMPT_FROM_CAD_STANDARDS
 70
     0
  0
APPID
  5
7F0
330
9
100
AcDbSymbolTableRecord
100
AcDbRegAppTableRecord
  2
ACAD_MLEADERVER
 70
     0
  0
ENDTAB
  0
TABLE
  2
DIMSTYLE
  5
A
330
0
100
AcDbSymbolTable
 70
     4
100
AcDbDimStyleTable
 71
     1
340
587
  0
DIMSTYLE
105
587
330
A
100
AcDbSymbolTableRecord
100
AcDbDimStyleTableRecord
  2
STANDARD
 70
     0
340
F
  0
ENDTAB
  0
TABLE
  2
BLOCK_RECORD
  5
1
330
0
100
AcDbSymbolTable
 70
     7
  0
BLOCK_RECORD
  5
17
330
1
100
AcDbSymbolTableRecord
100
AcDbBlockTableRecord
  2
*MODEL_SPACE
340
5A6
 70
     0
280
     1
281
     0
  0
BLOCK_RECORD
  5
14
330
1
100
AcDbSymbolTableRecord
100
AcDbBlockTableRecord
  2
*PAPER_SPACE
340
5A7
 70
     0
280
     1
281
     0
  0
BLOCK_RECORD
  5
1C
330
1
100
AcDbSymbolTableRecord
100
AcDbBlockTableRecord
  2
RECT
340
0
102
{BLKREFS
331
36C
331
36D
331
36E
331
36F
331
42A
331
42C
331
443
331
444
331
445
331
446
331
44B
331
44C
331
493
331
494
331
540
331
541
331
55B
331
55E
331
55F
331
560
102
}
 70
     0
280
     1
281
     0
  0
BLOCK_RECORD
  5
21
330
1
100
AcDbSymbolTableRecord
100
AcDbBlockTableRecord
  2
12393
340
0
102
{BLKREFS
331
586
102
}
 70
     0
280
     1
281
     0
  0
BLOCK_RECORD
  5
595
330
1
100
AcDbSymbolTableRecord
100
AcDbBlockTableRecord
  2
A$C0C8E303C
340
0
 70
     0
280
     1
281
     0
  0
ENDTAB
  0
ENDSEC
  0
SECTION
  2
BLOCKS
  0
BLOCK
  5
33
330
17
100
AcDbEntity
  8
0
100
AcDbBlockBegin
  2
*MODEL_SPACE
 70
     0
 10
0.0
 20
0.0
 30
0.0
  3
*MODEL_SPACE
  1

  0
ENDBLK
  5
34
330
17
100
AcDbEntity
  8
0
100
AcDbBlockEnd
  0
BLOCK
  5
31
330
14
100
AcDbEntity
 67
     1
  8
0
100
AcDbBlockBegin
  2
*PAPER_SPACE
 70
     0
 10
0.0
 20
0.0
 30
0.0
  3
*PAPER_SPACE
  1

  0
ENDBLK
  5
32
330
14
100
AcDbEntity
 67
     1
  8
0
100
AcDbBlockEnd
  0
BLOCK
  5
37
330
1C
100
AcDbEntity
  8
0
100
AcDbBlockBegin
  2
RECT
 70
     0
 10
0.0
 20
0.0
 30
0.0
  3
RECT
  1

  0
LWPOLYLINE
  5
38
330
1C
100
AcDbEntity
  8
0
100
AcDbPolyline
 90
        4
 70
     1
 43
0.0
 10
0.0
 20
0.0
 10
1.0
 20
0.0
 10
1.0
 20
1.0
 10
0.0
 20
1.0
  0
ENDBLK
  5
3E
330
1C
100
AcDbEntity
  8
0
100
AcDbBlockEnd
  0
BLOCK
  5
1E3
330
21
100
AcDbEntity
  8
0
100
AcDbBlockBegin
  2
12393
 70
     0
 10
0.0
 20
0.0
 30
0.0
  3
12393
  1

  0
LWPOLYLINE
  5
1E4
330
21
100
AcDbEntity
  8
PAPER
100
AcDbPolyline
 90
        6
 70
     1
 43
0.0
 10
0.4306642771816369
 20
0.4928167194996974
 10
0.1694889343491986
 20
0.4928167194996974
 10
0.1694889343491986
 20
0.406996324339807
 42
0.4142135623730912
 10
0.239367970629761
 20
0.3371172880592399
 10
0.5005433134622073
 20
0.3371172880592399
 10
0.5005433134622073
 20
0.4229376832191305
 42
0.4142135623730912
  0
TEXT
  5
1EC
330
21
100
AcDbEntity
  8
PAPER
100
AcDbText
 10
0.1968389652516827
 20
0.0653685483710036
 30
0.0
 40
0.08
  1
COMPANY
  7
B
100
AcDbText
  0
TEXT
  5
1ED
330
21
100
AcDbEntity
  8
PAPER
100
AcDbText
 10
0.1994274219848929
 20
0.1867646562232728
 30
0.0
 40
0.08
  1
BUILDING PRODUCTS
  7
B
100
AcDbText
  0
LWPOLYLINE
  5
1EE
330
21
100
AcDbEntity
  8
PAPER
100
AcDbPolyline
 90
       18
 70
     1
 43
0.0
 10
0.6765762518365296
 20
0.604111179110729
 10
0.6765762518365296
 20
0.5323750641537762
 10
0.7403416873538186
 20
0.5323750641537762
 10
0.7403416873538186
 20
0.6120818585503898
 42
0.4142135623730951
 10
0.7004882901555131
 20
0.6519352557486967
 10
0.6207814957588976
 20
0.651935255748697
 42
0.4142135623730951
 10
0.5809280985605884
 20
0.6120818585503898
 10
0.5809280985605884
 20
0.4128148725588553
 42
0.4142135623730953
 10
0.6207814957588976
 20
0.3729614753605477
 10
0.7004882901555131
 20
0.3729614753605477
 42
0.4142135623730951
 10
0.7403416873538186
 20
0.4128148725588553
 10
0.7403416873538186
 20
0.4925216669554695
 10
0.6765762518365296
 20
0.4925216669554695
 10
0.6765762518365296
 20
0.4207855519985151
 42
-0.4142135623730969
 10
0.6606348929572074
 20
0.4048441931191929
 42
-0.4142135623730943
 10
0.6446935340778858
 20
0.4207855519985151
 10
0.6446935340778773
 20
0.604111179110729
 42
-0.4142135623730951
 10
0.6606348929572074
 20
0.6200525379900517
 42
-0.4142135623730969
  0
LINE
  5
202
330
21
100
AcDbEntity
  8
PAPER
100
AcDbLine
 10
0.179962485820331
 20
0.5476544388800927
 30
0.0
 11
0.4540157620275672
 21
0.5476544388800927
 31
0.0
  0
LINE
  5
203
330
21
100
AcDbEntity
  8
PAPER
100
AcDbLine
 10
0.179962485820331
 20
0.5534249114501176
 30
0.0
 11
0.4644636791176112
 21
0.5534249114501176
 31
0.0
  0
LINE
  5
204
330
21
100
AcDbEntity
  8
PAPER
100
AcDbLine
 10
0.2082694119570478
 20
0.6688343628506253
 30
0.0
 11
0.4900697619910666
 21
0.6688343628506253
 31
0.0
  0
LINE
  5
205
330
21
100
AcDbEntity
  8
PAPER
100
AcDbLine
 10
0.2004068563776899
 20
0.6630638902805995
 30
0.0
 11
0.4900697619910666
 21
0.6630638902805995
 31
0.0
  0
LINE
  5
206
330
21
100
AcDbEntity
  8
PAPER
100
AcDbLine
 10
0.1946217999705963
 20
0.6572934177105746
 30
0.0
 11
0.4900697619910666
 21
0.6572934177105746
 31
0.0
  0
LINE
  5
207
330
21
100
AcDbEntity
  8
PAPER
100
AcDbLine
 10
0.1901757512634294
 20
0.6515229451405487
 30
0.0
 11
0.4900697619910679
 21
0.6515229451405487
 31
0.0
  0
LINE
  5
208
330
21
100
AcDbEntity
  8
PAPER
100
AcDbLine
 10
0.1867283240091624
 20
0.6457524725705238
 30
0.0
 11
0.4900697619910666
 21
0.6457524725705238
 31
0.0
  0
LINE
  5
209
330
21
100
AcDbEntity
  8
PAPER
100
AcDbLine
 10
0.1840923553989955
 20
0.639982000000498
 30
0.0
 11
0.4900697619910679
 21
0.639982000000498
 31
0.0
  0
LINE
  5
20A
330
21
100
AcDbEntity
  8
PAPER
100
AcDbLine
 10
0.1821555753418569
 20
0.634211527430473
 30
0.0
 11
0.4900697619910679
 21
0.634211527430473
 31
0.0
  0
LINE
  5
20B
330
21
100
AcDbEntity
  8
PAPER
100
AcDbLine
 10
0.1808485208488484
 20
0.6284410548604472
 30
0.0
 11
0.4900697619910666
 21
0.6284410548604481
 31
0.0
  0
LINE
  5
20C
330
21
100
AcDbEntity
  8
PAPER
100
AcDbLine
 10
0.1801294939159545
 20
0.6226705822904222
 30
0.0
 11
0.4900697619910666
 21
0.6226705822904222
 31
0.0
  0
LINE
  5
20D
330
21
100
AcDbEntity
  8
PAPER
100
AcDbLine
 10
0.179962485820331
 20
0.6169001097203973
 30
0.0
 11
0.4900697619910666
 21
0.6169001097203973
 31
0.0
  0
LINE
  5
20E
330
21
100
AcDbEntity
  8
PAPER
100
AcDbLine
 10
0.179962485820331
 20
0.6111296371503715
 30
0.0
 11
0.4900697619910666
 21
0.6111296371503715
 31
0.0
  0
LINE
  5
20F
330
21
100
AcDbEntity
  8
PAPER
100
AcDbLine
 10
0.179962485820331
 20
0.6053591645803456
 30
0.0
 11
0.4900697619910666
 21
0.6053591645803465
 31
0.0
  0
LINE
  5
210
330
21
100
AcDbEntity
  8
PAPER
100
AcDbLine
 10
0.179962485820331
 20
0.5995886920103207
 30
0.0
 11
0.4900088634547457
 21
0.5995886920103207
 31
0.0
  0
LINE
  5
211
330
21
100
AcDbEntity
  8
PAPER
100
AcDbLine
 10
0.179962485820331
 20
0.5938182194402958
 30
0.0
 11
0.489464326944437
 21
0.5938182194402958
 31
0.0
  0
LINE
  5
212
330
21
100
AcDbEntity
  8
PAPER
100
AcDbLine
 10
0.179962485820331
 20
0.5880477468702699
 30
0.0
 11
0.4883402260418935
 21
0.5880477468702699
 31
0.0
  0
LINE
  5
213
330
21
100
AcDbEntity
  8
PAPER
100
AcDbLine
 10
0.179962485820331
 20
0.582277274300245
 30
0.0
 11
0.4866016313770596
 21
0.582277274300245
 31
0.0
  0
LINE
  5
214
330
21
100
AcDbEntity
  8
PAPER
100
AcDbLine
 10
0.179962485820331
 20
0.5765068017302191
 30
0.0
 11
0.4841886959498878
 21
0.57650680173022
 31
0.0
  0
LINE
  5
215
330
21
100
AcDbEntity
  8
PAPER
100
AcDbLine
 10
0.179962485820331
 20
0.5707363291601942
 30
0.0
 11
0.4810045444357528
 21
0.5707363291601942
 31
0.0
  0
LINE
  5
216
330
21
100
AcDbEntity
  8
PAPER
100
AcDbLine
 10
0.179962485820331
 20
0.5649658565901684
 30
0.0
 11
0.476890080609836
 21
0.5649658565901684
 31
0.0
  0
LINE
  5
217
330
21
100
AcDbEntity
  8
PAPER
100
AcDbLine
 10
0.179962485820331
 20
0.5591953840201434
 30
0.0
 11
0.4715655068768332
 21
0.5591953840201434
 31
0.0
  0
LINE
  5
218
330
21
100
AcDbEntity
  8
PAPER
100
AcDbLine
 10
0.1799624858203297
 20
0.4797017933670292
 30
0.0
 11
0.4481813381384436
 21
0.4797017933670292
 31
0.0
  0
LINE
  5
219
330
21
100
AcDbEntity
  8
PAPER
100
AcDbLine
 10
0.1799624858203297
 20
0.4739313207970051
 30
0.0
 11
0.4611382095177341
 21
0.4739313207970043
 31
0.0
  0
LINE
  5
21A
330
21
100
AcDbEntity
  8
PAPER
100
AcDbLine
 10
0.1799624858203297
 20
0.4681608482269793
 30
0.0
 11
0.4691854008946813
 21
0.4681608482269793
 31
0.0
  0
LINE
  5
21B
330
21
100
AcDbEntity
  8
PAPER
100
AcDbLine
 10
0.1799624858203297
 20
0.4623903756569535
 30
0.0
 11
0.4750770758420224
 21
0.4623903756569535
 31
0.0
  0
LINE
  5
21C
330
21
100
AcDbEntity
  8
PAPER
100
AcDbLine
 10
0.1799624858203297
 20
0.4566199030869285
 30
0.0
 11
0.479598106893014
 21
0.4566199030869285
 31
0.0
  0
LINE
  5
21D
330
21
100
AcDbEntity
  8
PAPER
100
AcDbLine
 10
0.1799624858203297
 20
0.4508494305169027
 30
0.0
 11
0.4831042046055581
 21
0.4508494305169027
 31
0.0
  0
LINE
  5
21E
330
21
100
AcDbEntity
  8
PAPER
100
AcDbLine
 10
0.1799624858203297
 20
0.4450789579468778
 30
0.0
 11
0.485789367466116
 21
0.4450789579468778
 31
0.0
  0
LINE
  5
21F
330
21
100
AcDbEntity
  8
PAPER
100
AcDbLine
 10
0.1799624858203297
 20
0.4393084853768519
 30
0.0
 11
0.4877695174154331
 21
0.4393084853768519
 31
0.0
  0
LINE
  5
220
330
21
100
AcDbEntity
  8
PAPER
100
AcDbLine
 10
0.1799624858203297
 20
0.433538012806827
 30
0.0
 11
0.4891163484715177
 21
0.433538012806827
 31
0.0
  0
LINE
  5
221
330
21
100
AcDbEntity
  8
PAPER
100
AcDbLine
 10
0.1799624858203297
 20
0.4277675402368021
 30
0.0
 11
0.4898730949931477
 21
0.4277675402368021
 31
0.0
  0
LINE
  5
222
330
21
100
AcDbEntity
  8
PAPER
100
AcDbLine
 10
0.1799624858203297
 20
0.4219970676667762
 30
0.0
 11
0.4900697619910666
 21
0.4219970676667762
 31
0.0
  0
LINE
  5
223
330
21
100
AcDbEntity
  8
PAPER
100
AcDbLine
 10
0.1799624858203297
 20
0.4162265950967513
 30
0.0
 11
0.4900697619910666
 21
0.4162265950967513
 31
0.0
  0
LINE
  5
224
330
21
100
AcDbEntity
  8
PAPER
100
AcDbLine
 10
0.1799624858203297
 20
0.4104561225267254
 30
0.0
 11
0.4900697619910666
 21
0.4104561225267254
 31
0.0
  0
LINE
  5
225
330
21
100
AcDbEntity
  8
PAPER
100
AcDbLine
 10
0.1800074415777251
 20
0.4046856499567005
 30
0.0
 11
0.4900697619910661
 21
0.4046856499567005
 31
0.0
  0
LINE
  5
226
330
21
100
AcDbEntity
  8
PAPER
100
AcDbLine
 10
0.1805147065795245
 20
0.3989151773866746
 30
0.0
 11
0.4900697619910661
 21
0.3989151773866746
 31
0.0
  0
LINE
  5
227
330
21
100
AcDbEntity
  8
PAPER
100
AcDbLine
 10
0.1815999495278901
 20
0.3931447048166496
 30
0.0
 11
0.4900697619910666
 21
0.3931447048166496
 31
0.0
  0
LINE
  5
228
330
21
100
AcDbEntity
  8
PAPER
100
AcDbLine
 10
0.1832967201770794
 20
0.3873742322466238
 30
0.0
 11
0.4900697619910666
 21
0.3873742322466238
 31
0.0
  0
LINE
  5
229
330
21
100
AcDbEntity
  8
PAPER
100
AcDbLine
 10
0.1856629495863802
 20
0.3816037596765989
 30
0.0
 11
0.4900697619910666
 21
0.3816037596765989
 31
0.0
  0
LINE
  5
22A
330
21
100
AcDbEntity
  8
PAPER
100
AcDbLine
 10
0.1887925147658442
 20
0.375833287106573
 30
0.0
 11
0.4900697619910679
 21
0.375833287106573
 31
0.0
  0
LINE
  5
22B
330
21
100
AcDbEntity
  8
PAPER
100
AcDbLine
 10
0.1928391894394334
 20
0.3700628145365481
 30
0.0
 11
0.4900697619910666
 21
0.3700628145365481
 31
0.0
  0
LINE
  5
22C
330
21
100
AcDbEntity
  8
PAPER
100
AcDbLine
 10
0.1980717054850516
 20
0.3642923419665223
 30
0.0
 11
0.4900697619910661
 21
0.3642923419665223
 31
0.0
  0
LINE
  5
22D
330
21
100
AcDbEntity
  8
PAPER
100
AcDbLine
 10
0.2050279234051501
 20
0.3585218693964973
 30
0.0
 11
0.4900697619910661
 21
0.3585218693964973
 31
0.0
  0
LWPOLYLINE
  5
22E
330
21
100
AcDbEntity
  8
PAPER
100
AcDbPolyline
 90
        6
 70
     1
 43
0.0
 10
0.5005433134622073
 20
0.602277875067701
 42
-0.4142135623730912
 10
0.4306642771816369
 20
0.5323988387871342
 10
0.1694889343491986
 20
0.5323988387871348
 10
0.1694889343491986
 20
0.6182192339470243
 42
-0.4142135623730912
 10
0.239367970629761
 20
0.6880982702275914
 10
0.5005433134622073
 20
0.6880982702275917
  0
LWPOLYLINE
  5
236
330
21
100
AcDbEntity
  8
PAPER
100
AcDbPolyline
 90
        6
 70
     1
 43
0.0
 10
0.4306642771816369
 20
0.4823431680285597
 10
0.1799624858203308
 20
0.4823431680285597
 10
0.1799624858203308
 20
0.406996324339807
 42
0.4142135623730903
 10
0.239367970629761
 20
0.3475908395303771
 10
0.4900697619910668
 20
0.3475908395303771
 10
0.4900697619910668
 20
0.4229376832191305
 42
0.4142135623730933
  0
LWPOLYLINE
  5
23E
330
21
100
AcDbEntity
  8
PAPER
100
AcDbPolyline
 90
        6
 70
     1
 43
0.0
 10
0.4900697619910668
 20
0.602277875067701
 42
-0.4142135623730941
 10
0.4306642771816369
 20
0.5428723902582718
 10
0.1799624858203308
 20
0.5428723902582722
 10
0.1799624858203308
 20
0.6182192339470243
 42
-0.4142135623730911
 10
0.239367970629761
 20
0.6776247187564537
 10
0.4900697619910668
 20
0.677624718756454
  0
LINE
  5
246
330
21
100
AcDbEntity
  8
PAPER
100
AcDbLine
 10
0.2206683564119276
 20
0.6746048354206503
 30
0.0
 11
0.4900697619910666
 21
0.6746048354206503
 31
0.0
  0
LINE
  5
247
330
21
100
AcDbEntity
  8
PAPER
100
AcDbLine
 10
0.2151502196087309
 20
0.3527513968264715
 30
0.0
 11
0.4900697619910666
 21
0.3527513968264715
 31
0.0
  0
LINE
  5
248
330
21
100
AcDbEntity
  8
PAPER
100
AcDbLine
 10
0.6993060123198396
 20
0.5323750641537764
 30
0.0
 11
0.6993060123198396
 21
0.6519352557486967
 31
0.0
  0
LINE
  5
249
330
21
100
AcDbEntity
  8
PAPER
100
AcDbLine
 10
0.6819945946097639
 20
0.5323750641537764
 30
0.0
 11
0.6819945946097639
 21
0.6519352557486967
 31
0.0
  0
LINE
  5
24A
330
21
100
AcDbEntity
  8
PAPER
100
AcDbLine
 10
0.6935355397498143
 20
0.5323750641537764
 30
0.0
 11
0.6935355397498143
 21
0.6519352557486967
 31
0.0
  0
LINE
  5
24B
330
21
100
AcDbEntity
  8
PAPER
100
AcDbLine
 10
0.687765067179787
 20
0.5323750641537764
 30
0.0
 11
0.6877650671797884
 21
0.6519352557486967
 31
0.0
  0
LINE
  5
24C
330
21
100
AcDbEntity
  8
PAPER
100
AcDbLine
 10
0.6762241220397389
 20
0.6074432744763766
 30
0.0
 11
0.6762241220397389
 21
0.6519352557486967
 31
0.0
  0
LINE
  5
24D
330
21
100
AcDbEntity
  8
PAPER
100
AcDbLine
 10
0.6704536494697131
 20
0.6166697993956756
 30
0.0
 11
0.6704536494697131
 21
0.6519352557486967
 31
0.0
  0
LINE
  5
24E
330
21
100
AcDbEntity
  8
PAPER
100
AcDbLine
 10
0.6646831768996873
 20
0.6195299443023499
 30
0.0
 11
0.6646831768996873
 21
0.6519352557486967
 31
0.0
  0
LINE
  5
24F
330
21
100
AcDbEntity
  8
PAPER
100
AcDbLine
 10
0.6473717591896115
 20
0.6129551717373801
 30
0.0
 11
0.6473717591896115
 21
0.6519352557486967
 31
0.0
  0
LINE
  5
250
330
21
100
AcDbEntity
  8
PAPER
100
AcDbLine
 10
0.6531422317596383
 20
0.6181819627099408
 30
0.0
 11
0.6531422317596379
 21
0.6519352557486967
 31
0.0
  0
LINE
  5
251
330
21
100
AcDbEntity
  8
PAPER
100
AcDbLine
 10
0.6589127043296611
 20
0.6199592385896827
 30
0.0
 11
0.6589127043296611
 21
0.6519352557486967
 31
0.0
  0
LINE
  5
252
330
21
100
AcDbEntity
  8
PAPER
100
AcDbLine
 10
0.6993060123198396
 20
0.3729614753605472
 30
0.0
 11
0.6993060123198396
 21
0.4925216669554694
 31
0.0
  0
LINE
  5
253
330
21
100
AcDbEntity
  8
PAPER
100
AcDbLine
 10
0.6935355397498155
 20
0.3729614753605472
 30
0.0
 11
0.6935355397498143
 21
0.4925216669554694
 31
0.0
  0
LINE
  5
254
330
21
100
AcDbEntity
  8
PAPER
100
AcDbLine
 10
0.687765067179787
 20
0.3729614753605472
 30
0.0
 11
0.687765067179787
 21
0.4925216669554694
 31
0.0
  0
LINE
  5
255
330
21
100
AcDbEntity
  8
PAPER
100
AcDbLine
 10
0.6819945946097639
 20
0.3729614753605472
 30
0.0
 11
0.6819945946097639
 21
0.4925216669554694
 31
0.0
  0
LINE
  5
256
330
21
100
AcDbEntity
  8
PAPER
100
AcDbLine
 10
0.6762241220397398
 20
0.3729614753605472
 30
0.0
 11
0.6762241220397398
 21
0.4174534566320139
 31
0.0
  0
LINE
  5
257
330
21
100
AcDbEntity
  8
PAPER
100
AcDbLine
 10
0.6704536494697131
 20
0.3729614753605472
 30
0.0
 11
0.6704536494697131
 21
0.4082269317133357
 31
0.0
  0
LINE
  5
258
330
21
100
AcDbEntity
  8
PAPER
100
AcDbLine
 10
0.6646831768996873
 20
0.3729614753605472
 30
0.0
 11
0.6646831768996873
 21
0.4053667868067049
 31
0.0
  0
LINE
  5
259
330
21
100
AcDbEntity
  8
PAPER
100
AcDbLine
 10
0.658912704329662
 20
0.3729614753605472
 30
0.0
 11
0.658912704329662
 21
0.4049374925195134
 31
0.0
  0
LINE
  5
25A
330
21
100
AcDbEntity
  8
PAPER
100
AcDbLine
 10
0.6531422317596379
 20
0.3729614753605472
 30
0.0
 11
0.6531422317596383
 21
0.4067147683992561
 31
0.0
  0
LINE
  5
25B
330
21
100
AcDbEntity
  8
PAPER
100
AcDbLine
 10
0.6473717591896115
 20
0.3729614753605472
 30
0.0
 11
0.6473717591896115
 21
0.4119415593717804
 31
0.0
  0
LINE
  5
25C
330
21
100
AcDbEntity
  8
PAPER
100
AcDbLine
 10
0.6416012866195871
 20
0.3729614753605472
 30
0.0
 11
0.6416012866195857
 21
0.6519352557486967
 31
0.0
  0
LINE
  5
25D
330
21
100
AcDbEntity
  8
PAPER
100
AcDbLine
 10
0.6358308140495599
 20
0.3729614753605472
 30
0.0
 11
0.6358308140495604
 21
0.6519352557486967
 31
0.0
  0
LINE
  5
25E
330
21
100
AcDbEntity
  8
PAPER
100
AcDbLine
 10
0.6300603414795355
 20
0.3729614753605472
 30
0.0
 11
0.6300603414795355
 21
0.6519352557486967
 31
0.0
  0
LINE
  5
25F
330
21
100
AcDbEntity
  8
PAPER
100
AcDbLine
 10
0.6242898689095091
 20
0.3729614753605472
 30
0.0
 11
0.6242898689095091
 21
0.6519352557486967
 31
0.0
  0
LINE
  5
260
330
21
100
AcDbEntity
  8
PAPER
100
AcDbLine
 10
0.6185193963394847
 20
0.3730257261183592
 30
0.0
 11
0.6185193963394847
 21
0.6518710049910207
 31
0.0
  0
LINE
  5
261
330
21
100
AcDbEntity
  8
PAPER
100
AcDbLine
 10
0.6127489237694597
 20
0.3737793623728576
 30
0.0
 11
0.6127489237694597
 21
0.6511173687364645
 31
0.0
  0
LINE
  5
262
330
21
100
AcDbEntity
  8
PAPER
100
AcDbLine
 10
0.6069784511994339
 20
0.3754281205050043
 30
0.0
 11
0.6069784511994339
 21
0.6494686106042734
 31
0.0
  0
LINE
  5
263
330
21
100
AcDbEntity
  8
PAPER
100
AcDbLine
 10
0.6012079786294072
 20
0.3780993040710958
 30
0.0
 11
0.6012079786294081
 21
0.6467974270381588
 31
0.0
  0
LINE
  5
264
330
21
100
AcDbEntity
  8
PAPER
100
AcDbLine
 10
0.5954375060593826
 20
0.3820581585868197
 30
0.0
 11
0.5954375060593826
 21
0.6428385725224802
 31
0.0
  0
LINE
  5
265
330
21
100
AcDbEntity
  8
PAPER
100
AcDbLine
 10
0.5896670334893591
 20
0.3879113887478656
 30
0.0
 11
0.5896670334893591
 21
0.6369853423614174
 31
0.0
  0
LINE
  5
266
330
21
100
AcDbEntity
  8
PAPER
100
AcDbLine
 10
0.5838965609193315
 20
0.3977219984081894
 30
0.0
 11
0.5838965609193327
 21
0.6271747327012845
 31
0.0
  0
LWPOLYLINE
  5
267
330
21
100
AcDbEntity
  8
PAPER
100
AcDbPolyline
 90
        5
 70
     0
 43
0.0
 10
0.9134655158037315
 20
0.5048096616906559
 42
-1.00459822107278
 10
0.9453475625419073
 20
0.5049559268813409
 10
0.9453475625419073
 20
0.4207855519985151
 42
-0.9999999999999996
 10
0.9134648447832638
 20
0.4207855519985151
 10
0.9134648447832638
 20
0.5049559268813409
  0
LWPOLYLINE
  5
26E
330
21
100
AcDbEntity
  8
PAPER
100
AcDbPolyline
 90
        8
 70
     1
 43
0.0
 10
1.009112998059204
 20
0.5129266063210024
 10
1.009112998059204
 20
0.4128148725588541
 42
-0.4142135623730951
 10
0.9692596008608955
 20
0.3729614753605477
 10
0.8895528064642801
 20
0.3729614753605477
 42
-0.4142135623730951
 10
0.8496994092659749
 20
0.4128148725588544
 10
0.8496994092659699
 20
0.5129266063210024
 42
-0.4142135623730951
 10
0.8895528064642801
 20
0.5527800035193087
 10
0.9692596008608955
 20
0.5527800035193087
 42
-0.4142135623730951
  0
LINE
  5
278
330
21
100
AcDbEntity
  8
PAPER
100
AcDbLine
 10
0.7396993203100186
 20
0.5323750641537764
 30
0.0
 11
0.7396993203100183
 21
0.6192084553866451
 31
0.0
  0
LINE
  5
279
330
21
100
AcDbEntity
  8
PAPER
100
AcDbLine
 10
0.7339288477399933
 20
0.5323750641537764
 30
0.0
 11
0.7339288477399919
 21
0.6337618580126446
 31
0.0
  0
LINE
  5
27A
330
21
100
AcDbEntity
  8
PAPER
100
AcDbLine
 10
0.7281583751699661
 20
0.5323750641537764
 30
0.0
 11
0.7281583751699661
 21
0.6407639028210291
 31
0.0
  0
LINE
  5
27B
330
21
100
AcDbEntity
  8
PAPER
100
AcDbLine
 10
0.7108469574598882
 20
0.5323750641537764
 30
0.0
 11
0.7108469574598909
 21
0.6505655080645008
 31
0.0
  0
LINE
  5
27C
330
21
100
AcDbEntity
  8
PAPER
100
AcDbLine
 10
0.7223879025999402
 20
0.5323750641537764
 30
0.0
 11
0.7223879025999408
 21
0.6453790092247925
 31
0.0
  0
LINE
  5
27D
330
21
100
AcDbEntity
  8
PAPER
100
AcDbLine
 10
0.7166174300299153
 20
0.5323750641537764
 30
0.0
 11
0.7166174300299153
 21
0.6485255701500135
 31
0.0
  0
LINE
  5
27E
330
21
100
AcDbEntity
  8
PAPER
100
AcDbLine
 10
0.7050764848898645
 20
0.5323750641537764
 30
0.0
 11
0.7050764848898645
 21
0.6516702626268386
 31
0.0
  0
LINE
  5
27F
330
21
100
AcDbEntity
  8
PAPER
100
AcDbLine
 10
0.8147154637203451
 20
0.3729614753605481
 30
0.0
 11
0.814715463720346
 21
0.6522540829262836
 31
0.0
  0
LINE
  5
280
330
21
100
AcDbEntity
  8
PAPER
100
AcDbLine
 10
0.8089449911503201
 20
0.3729614753605481
 30
0.0
 11
0.8089449911503201
 21
0.6522540829262836
 31
0.0
  0
LINE
  5
281
330
21
100
AcDbEntity
  8
PAPER
100
AcDbLine
 10
0.803174518580297
 20
0.3729614753605481
 30
0.0
 11
0.803174518580297
 21
0.6522540829262836
 31
0.0
  0
LINE
  5
282
330
21
100
AcDbEntity
  8
PAPER
100
AcDbLine
 10
0.7974040460102698
 20
0.3729614753605481
 30
0.0
 11
0.7974040460102712
 21
0.6522540829262836
 31
0.0
  0
LINE
  5
283
330
21
100
AcDbEntity
  8
PAPER
100
AcDbLine
 10
0.7916335734402445
 20
0.3729614753605481
 30
0.0
 11
0.7916335734402454
 21
0.6522540829262836
 31
0.0
  0
LINE
  5
284
330
21
100
AcDbEntity
  8
PAPER
100
AcDbLine
 10
0.7858631008702199
 20
0.3729614753605481
 30
0.0
 11
0.7858631008702199
 21
0.6522540829262836
 31
0.0
  0
LINE
  5
285
330
21
100
AcDbEntity
  8
PAPER
100
AcDbLine
 10
0.7800926283001946
 20
0.3729614753605481
 30
0.0
 11
0.7800926283001946
 21
0.6522540829262836
 31
0.0
  0
LINE
  5
286
330
21
100
AcDbEntity
  8
PAPER
100
AcDbLine
 10
0.774322155730167
 20
0.3729614753605481
 30
0.0
 11
0.7743221557301683
 21
0.6522540829262836
 31
0.0
  0
LINE
  5
287
330
21
100
AcDbEntity
  8
PAPER
100
AcDbLine
 10
0.7396993203100183
 20
0.4056882757221059
 30
0.0
 11
0.7396993203100186
 21
0.4925216669554694
 31
0.0
  0
LINE
  5
288
330
21
100
AcDbEntity
  8
PAPER
100
AcDbLine
 10
0.7339288477399919
 20
0.3911348730964466
 30
0.0
 11
0.7339288477399933
 21
0.4925216669554694
 31
0.0
  0
LINE
  5
289
330
21
100
AcDbEntity
  8
PAPER
100
AcDbLine
 10
0.7281583751699675
 20
0.3841328282881988
 30
0.0
 11
0.7281583751699675
 21
0.4925216669554694
 31
0.0
  0
LINE
  5
28A
330
21
100
AcDbEntity
  8
PAPER
100
AcDbLine
 10
0.7223879025999408
 20
0.3795177218844346
 30
0.0
 11
0.7223879025999402
 21
0.4925216669554694
 31
0.0
  0
LINE
  5
28B
330
21
100
AcDbEntity
  8
PAPER
100
AcDbLine
 10
0.7166174300299153
 20
0.3763711609591451
 30
0.0
 11
0.7166174300299153
 21
0.4925216669554694
 31
0.0
  0
LINE
  5
28C
330
21
100
AcDbEntity
  8
PAPER
100
AcDbLine
 10
0.7108469574598895
 20
0.3743312230446996
 30
0.0
 11
0.7108469574598882
 21
0.4925216669554694
 31
0.0
  0
LINE
  5
28D
330
21
100
AcDbEntity
  8
PAPER
100
AcDbLine
 10
0.7050764848898645
 20
0.3732264684822713
 30
0.0
 11
0.7050764848898645
 21
0.4925216669554694
 31
0.0
  0
LWPOLYLINE
  5
28E
330
21
100
AcDbEntity
  8
PAPER
100
AcDbPolyline
 90
        4
 70
     1
 43
0.0
 10
0.7703114420469431
 20
0.6522540829262833
 10
0.820048481750431
 20
0.6522540829262833
 10
0.820048481750431
 20
0.3729614753605477
 10
0.7703114420469431
 20
0.3729614753605477
  0
LINE
  5
294
330
21
100
AcDbEntity
  8
PAPER
100
AcDbLine
 10
0.9416658602609027
 20
0.5151455168146607
 30
0.0
 11
0.9416658602609027
 21
0.5527800035193094
 31
0.0
  0
LINE
  5
295
330
21
100
AcDbEntity
  8
PAPER
100
AcDbLine
 10
0.9358953876908786
 20
0.5195167446319065
 30
0.0
 11
0.9358953876908781
 21
0.5527800035193094
 31
0.0
  0
LINE
  5
296
330
21
100
AcDbEntity
  8
PAPER
100
AcDbLine
 10
0.9185839699808029
 20
0.5166608908306677
 30
0.0
 11
0.9185839699808029
 21
0.5527800035193094
 31
0.0
  0
LINE
  5
297
330
21
100
AcDbEntity
  8
PAPER
100
AcDbLine
 10
0.9243544425508279
 20
0.5200756700202874
 30
0.0
 11
0.9243544425508279
 21
0.5527800035193094
 31
0.0
  0
LINE
  5
298
330
21
100
AcDbEntity
  8
PAPER
100
AcDbLine
 10
0.9301249151208546
 20
0.5208810760724088
 30
0.0
 11
0.9301249151208532
 21
0.5527800035193094
 31
0.0
  0
LINE
  5
299
330
21
100
AcDbEntity
  8
PAPER
100
AcDbLine
 10
0.9416658602609027
 20
0.3729614753605472
 30
0.0
 11
0.9416658602609027
 21
0.4105959620656775
 31
0.0
  0
LINE
  5
29A
330
21
100
AcDbEntity
  8
PAPER
100
AcDbLine
 10
0.9358953876908786
 20
0.3729614753605472
 30
0.0
 11
0.9358953876908786
 21
0.4062247342482993
 31
0.0
  0
LINE
  5
29B
330
21
100
AcDbEntity
  8
PAPER
100
AcDbLine
 10
0.9301249151208532
 20
0.3729614753605472
 30
0.0
 11
0.9301249151208546
 21
0.4048604028077668
 31
0.0
  0
LINE
  5
29C
330
21
100
AcDbEntity
  8
PAPER
100
AcDbLine
 10
0.9243544425508279
 20
0.3729614753605472
 30
0.0
 11
0.9243544425508279
 21
0.4056658088599051
 31
0.0
  0
LINE
  5
29D
330
21
100
AcDbEntity
  8
PAPER
100
AcDbLine
 10
0.9185839699808029
 20
0.3729614753605472
 30
0.0
 11
0.9185839699808029
 21
0.4090805880496243
 31
0.0
  0
LINE
  5
29E
330
21
100
AcDbEntity
  8
PAPER
100
AcDbLine
 10
0.9128134974107775
 20
0.3729614753605472
 30
0.0
 11
0.9128134974107771
 21
0.5527800035193094
 31
0.0
  0
LINE
  5
29F
330
21
100
AcDbEntity
  8
PAPER
100
AcDbLine
 10
0.9070430248407534
 20
0.3729614753605472
 30
0.0
 11
0.9070430248407522
 21
0.5527800035193094
 31
0.0
  0
LINE
  5
2A0
330
21
100
AcDbEntity
  8
PAPER
100
AcDbLine
 10
0.9012725522707249
 20
0.3729614753605472
 30
0.0
 11
0.9012725522707249
 21
0.5527800035193094
 31
0.0
  0
LINE
  5
2A1
330
21
100
AcDbEntity
  8
PAPER
100
AcDbLine
 10
0.8955020797007009
 20
0.3729614753605472
 30
0.0
 11
0.8955020797007009
 21
0.5527800035193094
 31
0.0
  0
LINE
  5
2A2
330
21
100
AcDbEntity
  8
PAPER
100
AcDbLine
 10
0.8897316071306756
 20
0.3729614753605472
 30
0.0
 11
0.8897316071306756
 21
0.5527800035193094
 31
0.0
  0
LINE
  5
2A3
330
21
100
AcDbEntity
  8
PAPER
100
AcDbLine
 10
0.883961134560651
 20
0.373355697788363
 30
0.0
 11
0.883961134560651
 21
0.5523857810915257
 31
0.0
  0
LINE
  5
2A4
330
21
100
AcDbEntity
  8
PAPER
100
AcDbLine
 10
0.8781906619906251
 20
0.3746154623381999
 30
0.0
 11
0.8781906619906251
 21
0.5511260165416044
 31
0.0
  0
LINE
  5
2A5
330
21
100
AcDbEntity
  8
PAPER
100
AcDbLine
 10
0.8724201894205998
 20
0.3768320057820051
 30
0.0
 11
0.8724201894205998
 21
0.548909473097887
 31
0.0
  0
LINE
  5
2A6
330
21
100
AcDbEntity
  8
PAPER
100
AcDbLine
 10
0.8666497168505731
 20
0.3801998184520083
 30
0.0
 11
0.8666497168505731
 21
0.5455416604278936
 31
0.0
  0
LINE
  5
2A7
330
21
100
AcDbEntity
  8
PAPER
100
AcDbLine
 10
0.8608792442805494
 20
0.3851359979440543
 30
0.0
 11
0.8608792442805494
 21
0.5406054809358628
 31
0.0
  0
LINE
  5
2A8
330
21
100
AcDbEntity
  8
PAPER
100
AcDbLine
 10
0.855108771710525
 20
0.3927673854812139
 30
0.0
 11
0.8551087717105241
 21
0.5329740933985264
 31
0.0
  0
LINE
  5
2A9
330
21
100
AcDbEntity
  8
PAPER
100
AcDbLine
 10
1.085927674511538
 20
0.3133407931518792
 30
0.0
 11
1.085927674511537
 21
0.5527800035193094
 31
0.0
  0
LINE
  5
2AA
330
21
100
AcDbEntity
  8
PAPER
100
AcDbLine
 10
1.080157201941511
 20
0.3133407931518792
 30
0.0
 11
1.080157201941512
 21
0.5527800035193094
 31
0.0
  0
LINE
  5
2AB
330
21
100
AcDbEntity
  8
PAPER
100
AcDbLine
 10
1.074386729371487
 20
0.3133407931518792
 30
0.0
 11
1.074386729371486
 21
0.5527800035193094
 31
0.0
  0
LINE
  5
2AC
330
21
100
AcDbEntity
  8
PAPER
100
AcDbLine
 10
1.068616256801463
 20
0.3133407931518792
 30
0.0
 11
1.068616256801462
 21
0.5527800035193094
 31
0.0
  0
LINE
  5
2AD
330
21
100
AcDbEntity
  8
PAPER
100
AcDbLine
 10
1.062845784231436
 20
0.3133407931518792
 30
0.0
 11
1.062845784231436
 21
0.5527800035193094
 31
0.0
  0
LINE
  5
2AE
330
21
100
AcDbEntity
  8
PAPER
100
AcDbLine
 10
1.057075311661411
 20
0.3133407931518792
 30
0.0
 11
1.057075311661411
 21
0.5527800035193094
 31
0.0
  0
LINE
  5
2AF
330
21
100
AcDbEntity
  8
PAPER
100
AcDbLine
 10
1.051304839091385
 20
0.3133407931518792
 30
0.0
 11
1.051304839091385
 21
0.5527800035193094
 31
0.0
  0
LINE
  5
2B0
330
21
100
AcDbEntity
  8
PAPER
100
AcDbLine
 10
1.045534366521361
 20
0.3133407931518792
 30
0.0
 11
1.045534366521359
 21
0.5527800035193094
 31
0.0
  0
LINE
  5
2B1
330
21
100
AcDbEntity
  8
PAPER
100
AcDbLine
 10
1.039763893951335
 20
0.3133407931518792
 30
0.0
 11
1.039763893951334
 21
0.5527800035193094
 31
0.0
  0
LWPOLYLINE
  5
2B2
330
21
100
AcDbEntity
  8
PAPER
100
AcDbPolyline
 90
       14
 70
     1
 43
0.0
 10
1.038763925574744
 20
0.5527800035193087
 10
1.03876392557474
 20
0.3133407931518795
 10
1.089379855288469
 20
0.3133407931518795
 10
1.089379855288469
 20
0.3852569655925058
 10
1.092510514459754
 20
0.3827513008486167
 42
0.1813224577874149
 10
1.120383683036873
 20
0.3736313603814156
 10
1.130267325542051
 20
0.3729614753605477
 42
0.4544349447676743
 10
1.170120722740361
 20
0.4128148725588541
 10
1.170120722740361
 20
0.5129266063210015
 42
0.4142135623730878
 10
1.130267325542051
 20
0.5527800035193083
 10
1.120383683036876
 20
0.5527800035193087
 42
0.085164233175497
 10
1.104442324157559
 20
0.5500448987409083
 42
0.0977825579206252
 10
1.088500965278228
 20
0.5406018889892099
 10
1.088500965278228
 20
0.5527800035193087
  0
LINE
  5
2C2
330
21
100
AcDbEntity
  8
PAPER
100
AcDbLine
 10
1.005141058531182
 20
0.3954708746429467
 30
0.0
 11
1.005141058531182
 21
0.5302706042367225
 31
0.0
  0
LINE
  5
2C3
330
21
100
AcDbEntity
  8
PAPER
100
AcDbLine
 10
0.9993705859611578
 20
0.3867069840087784
 30
0.0
 11
0.9993705859611578
 21
0.5390344948709885
 31
0.0
  0
LINE
  5
2C4
330
21
100
AcDbEntity
  8
PAPER
100
AcDbLine
 10
0.9936001133911329
 20
0.3812580552602627
 30
0.0
 11
0.9936001133911325
 21
0.544483423619665
 31
0.0
  0
LINE
  5
2C5
330
21
100
AcDbEntity
  8
PAPER
100
AcDbLine
 10
0.9878296408211067
 20
0.3775523303344543
 30
0.0
 11
0.9878296408211067
 21
0.5481891485453721
 31
0.0
  0
LINE
  5
2C6
330
21
100
AcDbEntity
  8
PAPER
100
AcDbLine
 10
0.982059168251083
 20
0.3750727960013103
 30
0.0
 11
0.9820591682510817
 21
0.5506686828785757
 31
0.0
  0
LINE
  5
2C7
330
21
100
AcDbEntity
  8
PAPER
100
AcDbLine
 10
0.9762886956810554
 20
0.3735862466045752
 30
0.0
 11
0.9762886956810554
 21
0.5521552322751651
 31
0.0
  0
LINE
  5
2C8
330
21
100
AcDbEntity
  8
PAPER
100
AcDbLine
 10
0.9705182231110313
 20
0.3729813547844605
 30
0.0
 11
0.9705182231110313
 21
0.552760124095406
 31
0.0
  0
LINE
  5
2C9
330
21
100
AcDbEntity
  8
PAPER
100
AcDbLine
 10
0.9647477505410051
 20
0.3729614753605472
 30
0.0
 11
0.9647477505410051
 21
0.5527800035193094
 31
0.0
  0
LINE
  5
2CA
330
21
100
AcDbEntity
  8
PAPER
100
AcDbLine
 10
0.9589772779709806
 20
0.3729614753605472
 30
0.0
 11
0.9589772779709793
 21
0.5527800035193094
 31
0.0
  0
LINE
  5
2CB
330
21
100
AcDbEntity
  8
PAPER
100
AcDbLine
 10
0.9532068054009556
 20
0.3729614753605472
 30
0.0
 11
0.9532068054009556
 21
0.5527800035193094
 31
0.0
  0
LINE
  5
2CC
330
21
100
AcDbEntity
  8
PAPER
100
AcDbLine
 10
0.9474363328309298
 20
0.3729614753605472
 30
0.0
 11
0.9474363328309298
 21
0.5527800035193094
 31
0.0
  0
LINE
  5
2CD
330
21
100
AcDbEntity
  8
PAPER
100
AcDbLine
 10
1.114780037361662
 20
0.5062165957140559
 30
0.0
 11
1.114780037361662
 21
0.5524505735420105
 31
0.0
  0
LINE
  5
2CE
330
21
100
AcDbEntity
  8
PAPER
100
AcDbLine
 10
1.103239092221613
 20
0.5136216100974148
 30
0.0
 11
1.103239092221613
 21
0.5496012548793717
 31
0.0
  0
LINE
  5
2CF
330
21
100
AcDbEntity
  8
PAPER
100
AcDbLine
 10
1.109009564791637
 20
0.5120051728320288
 30
0.0
 11
1.109009564791638
 21
0.5514077485938954
 31
0.0
  0
LINE
  5
2D0
330
21
100
AcDbEntity
  8
PAPER
100
AcDbLine
 10
1.091698147081564
 20
0.5085818423503062
 30
0.0
 11
1.091698147081564
 21
0.543221869091571
 31
0.0
  0
LINE
  5
2D1
330
21
100
AcDbEntity
  8
PAPER
100
AcDbLine
 10
1.09746861965159
 20
0.5127242929656618
 30
0.0
 11
1.097468619651589
 21
0.5469326129858912
 31
0.0
  0
LINE
  5
2D2
330
21
100
AcDbEntity
  8
PAPER
100
AcDbLine
 10
1.166714290491893
 20
0.3945030082581915
 30
0.0
 11
1.166714290491893
 21
0.5290483932627267
 31
0.0
  0
LINE
  5
2D3
330
21
100
AcDbEntity
  8
PAPER
100
AcDbLine
 10
1.160943817921867
 20
0.3856434272371085
 30
0.0
 11
1.160943817921867
 21
0.5383676378157574
 31
0.0
  0
LINE
  5
2D4
330
21
100
AcDbEntity
  8
PAPER
100
AcDbLine
 10
1.155173345351841
 20
0.3803058821927008
 30
0.0
 11
1.155173345351842
 21
0.5440390386509629
 31
0.0
  0
LINE
  5
2D5
330
21
100
AcDbEntity
  8
PAPER
100
AcDbLine
 10
1.149402872781816
 20
0.3767634869824137
 30
0.0
 11
1.149402872781816
 21
0.5478854978949615
 31
0.0
  0
LINE
  5
2D6
330
21
100
AcDbEntity
  8
PAPER
100
AcDbLine
 10
1.143632400211791
 20
0.3744794151308122
 30
0.0
 11
1.143632400211791
 21
0.550472152625712
 31
0.0
  0
LINE
  5
2D7
330
21
100
AcDbEntity
  8
PAPER
100
AcDbLine
 10
1.137861927641765
 20
0.3732203046739746
 30
0.0
 11
1.137861927641765
 21
0.5520496850240305
 31
0.0
  0
LINE
  5
2D8
330
21
100
AcDbEntity
  8
PAPER
100
AcDbLine
 10
1.13209145507174
 20
0.3728825001730855
 30
0.0
 11
1.13209145507174
 21
0.5527382355228115
 31
0.0
  0
LINE
  5
2D9
330
21
100
AcDbEntity
  8
PAPER
100
AcDbLine
 10
1.126320982501715
 20
0.3732289472049153
 30
0.0
 11
1.126320982501715
 21
0.5527800035193085
 31
0.0
  0
LINE
  5
2DA
330
21
100
AcDbEntity
  8
PAPER
100
AcDbLine
 10
1.12055050993169
 20
0.3736200533316258
 30
0.0
 11
1.12055050993169
 21
0.5527800035193085
 31
0.0
  0
LINE
  5
2DB
330
21
100
AcDbEntity
  8
PAPER
100
AcDbLine
 10
1.114780037361662
 20
0.3737693774901458
 30
0.0
 11
1.114780037361662
 21
0.4195248831656978
 31
0.0
  0
LINE
  5
2DC
330
21
100
AcDbEntity
  8
PAPER
100
AcDbLine
 10
1.109009564791638
 20
0.374711492745728
 30
0.0
 11
1.109009564791637
 21
0.413736306047788
 31
0.0
  0
LINE
  5
2DD
330
21
100
AcDbEntity
  8
PAPER
100
AcDbLine
 10
1.103239092221613
 20
0.3765241585887995
 30
0.0
 11
1.103239092221613
 21
0.4121198687824064
 31
0.0
  0
LINE
  5
2DE
330
21
100
AcDbEntity
  8
PAPER
100
AcDbLine
 10
1.097468619651589
 20
0.3793385658356045
 30
0.0
 11
1.09746861965159
 21
0.4130171859141426
 31
0.0
  0
LINE
  5
2DF
330
21
100
AcDbEntity
  8
PAPER
100
AcDbLine
 10
1.091698147081564
 20
0.3834014898941989
 30
0.0
 11
1.091698147081564
 21
0.4171596365294742
 31
0.0
  0
LWPOLYLINE
  5
2E0
330
21
100
AcDbEntity
  8
PAPER
100
AcDbPolyline
 90
        4
 70
     1
 43
0.0
 10
1.116398343317045
 20
0.426046200428692
 10
1.116398343317048
 20
0.4996952784511639
 42
1.000000000000026
 10
1.088500965278228
 20
0.4996952784511639
 10
1.088500965278228
 20
0.426046200428692
 42
0.9999999999999998
  0
LWPOLYLINE
  5
2E6
330
21
100
AcDbEntity
  8
PAPER
100
AcDbPolyline
 90
       11
 70
     1
 43
0.0
 10
1.496892326062627
 20
0.5524611763417231
 10
1.538684940030307
 20
0.5524611763417231
 10
1.47832378001591
 20
0.3612812631982389
 42
-0.3272249499159052
 10
1.440319618096905
 20
0.3334269053398247
 10
1.379271351237073
 20
0.3334269053398247
 10
1.379271351237077
 20
0.3531941903501854
 10
1.416400195556034
 20
0.3531941903501854
 42
0.500425742919699
 10
1.431697805839234
 20
0.3736199714378292
 10
1.37927135123708
 20
0.5524611763417231
 10
1.420801844924441
 20
0.5524611763417231
 10
1.457435914654356
 20
0.4274921846227587
  0
LINE
  5
2F3
330
21
100
AcDbEntity
  8
PAPER
100
AcDbLine
 10
1.426385556143035
 20
0.3334269053398244
 30
0.0
 11
1.426385556143035
 21
0.356708985067719
 31
0.0
  0
LINE
  5
2F4
330
21
100
AcDbEntity
  8
PAPER
100
AcDbLine
 10
1.420615083573007
 20
0.3334269053398244
 30
0.0
 11
1.420615083573008
 21
0.3537614917972822
 31
0.0
  0
LINE
  5
2F5
330
21
100
AcDbEntity
  8
PAPER
100
AcDbLine
 10
1.414844611002982
 20
0.3334269053398244
 30
0.0
 11
1.414844611002982
 21
0.3531941903501854
 31
0.0
  0
LINE
  5
2F6
330
21
100
AcDbEntity
  8
PAPER
100
AcDbLine
 10
1.409074138432958
 20
0.3334269053398244
 30
0.0
 11
1.409074138432958
 21
0.3531941903501854
 31
0.0
  0
LINE
  5
2F7
330
21
100
AcDbEntity
  8
PAPER
100
AcDbLine
 10
1.403303665862932
 20
0.3334269053398244
 30
0.0
 11
1.403303665862931
 21
0.3531941903501854
 31
0.0
  0
LINE
  5
2F8
330
21
100
AcDbEntity
  8
PAPER
100
AcDbLine
 10
1.397533193292907
 20
0.3334269053398244
 30
0.0
 11
1.397533193292907
 21
0.3531941903501854
 31
0.0
  0
LINE
  5
2F9
330
21
100
AcDbEntity
  8
PAPER
100
AcDbLine
 10
1.391762720722881
 20
0.3334269053398244
 30
0.0
 11
1.39176272072288
 21
0.3531941903501854
 31
0.0
  0
LINE
  5
2FA
330
21
100
AcDbEntity
  8
PAPER
100
AcDbLine
 10
1.385992248152857
 20
0.3334269053398244
 30
0.0
 11
1.385992248152856
 21
0.3531941903501854
 31
0.0
  0
LINE
  5
2FB
330
21
100
AcDbEntity
  8
PAPER
100
AcDbLine
 10
1.38022177558283
 20
0.3334269053398244
 30
0.0
 11
1.380221775582829
 21
0.3531941903501854
 31
0.0
  0
LWPOLYLINE
  5
2FC
330
21
100
AcDbEntity
  8
PAPER
100
AcDbPolyline
 90
       17
 70
     1
 43
0.0
 10
1.295738630709426
 20
0.3732803025381342
 10
1.359504066226716
 20
0.3732803025381322
 10
1.35950406622672
 20
0.5126077791434152
 42
0.4142135623730996
 10
1.319650669028414
 20
0.552461176341722
 10
1.239943874631795
 20
0.5524611763417231
 42
0.3563939586927657
 10
1.200895679570868
 20
0.5205784585830566
 10
1.200895679570913
 20
0.5008111735727168
 10
1.263855912950778
 20
0.5008111735727168
 10
1.263855912950778
 20
0.5205784585830769
 10
1.295738630709426
 20
0.5205784585830769
 10
1.295738630709426
 20
0.4940481662509573
 10
1.223550682378897
 20
0.4550019875673489
 42
0.2561579178272127
 10
1.200090477433492
 20
0.4186762870785018
 10
1.200090477433492
 20
0.4131336997364419
 42
0.4142135623730949
 10
1.239943874631795
 20
0.3732803025381342
 10
1.263855912950778
 20
0.3732803025381348
 42
0.3566469110183342
 10
1.295100180665887
 20
0.3988145223150423
  0
LINE
  5
30F
330
21
100
AcDbEntity
  8
PAPER
100
AcDbLine
 10
1.29366468703245
 20
0.4667081515446839
 30
0.0
 11
1.29366468703245
 21
0.4929263782342071
 31
0.0
  0
LINE
  5
310
330
21
100
AcDbEntity
  8
PAPER
100
AcDbLine
 10
1.276353269322374
 20
0.4687602077781364
 30
0.0
 11
1.276353269322374
 21
0.4835627001576509
 31
0.0
  0
LINE
  5
311
330
21
100
AcDbEntity
  8
PAPER
100
AcDbLine
 10
1.282123741892401
 20
0.4715561523690378
 30
0.0
 11
1.282123741892401
 21
0.4866839261831702
 31
0.0
  0
LINE
  5
312
330
21
100
AcDbEntity
  8
PAPER
100
AcDbLine
 10
1.287894214462424
 20
0.4710911479496545
 30
0.0
 11
1.287894214462425
 21
0.4898051522086887
 31
0.0
  0
LINE
  5
313
330
21
100
AcDbEntity
  8
PAPER
100
AcDbLine
 10
1.29366468703245
 20
0.5205784585830767
 30
0.0
 11
1.29366468703245
 21
0.5524611763417225
 31
0.0
  0
LINE
  5
314
330
21
100
AcDbEntity
  8
PAPER
100
AcDbLine
 10
1.287894214462425
 20
0.5205784585830767
 30
0.0
 11
1.287894214462425
 21
0.5524611763417225
 31
0.0
  0
LINE
  5
315
330
21
100
AcDbEntity
  8
PAPER
100
AcDbLine
 10
1.270582796752349
 20
0.5205784585830767
 30
0.0
 11
1.27058279675235
 21
0.5524611763417225
 31
0.0
  0
LINE
  5
316
330
21
100
AcDbEntity
  8
PAPER
100
AcDbLine
 10
1.276353269322376
 20
0.5205784585830767
 30
0.0
 11
1.276353269322374
 21
0.5524611763417225
 31
0.0
  0
LINE
  5
317
330
21
100
AcDbEntity
  8
PAPER
100
AcDbLine
 10
1.282123741892401
 20
0.5205784585830767
 30
0.0
 11
1.2821237418924
 21
0.5524611763417225
 31
0.0
  0
LINE
  5
318
330
21
100
AcDbEntity
  8
PAPER
100
AcDbLine
 10
1.253271379042273
 20
0.5008111735727166
 30
0.0
 11
1.253271379042273
 21
0.5524611763417234
 31
0.0
  0
LINE
  5
319
330
21
100
AcDbEntity
  8
PAPER
100
AcDbLine
 10
1.264812324182323
 20
0.5205784585830767
 30
0.0
 11
1.264812324182322
 21
0.5524611763417225
 31
0.0
  0
LINE
  5
31A
330
21
100
AcDbEntity
  8
PAPER
100
AcDbLine
 10
1.259041851612298
 20
0.5008111735727166
 30
0.0
 11
1.259041851612298
 21
0.5524611763417225
 31
0.0
  0
LINE
  5
31B
330
21
100
AcDbEntity
  8
PAPER
100
AcDbLine
 10
1.235959961332196
 20
0.5008111735727166
 30
0.0
 11
1.235959961332196
 21
0.5522615520163646
 31
0.0
  0
LINE
  5
31C
330
21
100
AcDbEntity
  8
PAPER
100
AcDbLine
 10
1.247500906472249
 20
0.5008111735727166
 30
0.0
 11
1.247500906472248
 21
0.5524611763417234
 31
0.0
  0
LINE
  5
31D
330
21
100
AcDbEntity
  8
PAPER
100
AcDbLine
 10
1.241730433902222
 20
0.5008111735727166
 30
0.0
 11
1.241730433902222
 21
0.5524611763417234
 31
0.0
  0
LINE
  5
31E
330
21
100
AcDbEntity
  8
PAPER
100
AcDbLine
 10
1.218648543622122
 20
0.5008111735727166
 30
0.0
 11
1.218648543622121
 21
0.5462946036515167
 31
0.0
  0
LINE
  5
31F
330
21
100
AcDbEntity
  8
PAPER
100
AcDbLine
 10
1.224419016192147
 20
0.5008111735727166
 30
0.0
 11
1.224419016192147
 21
0.5493129836609637
 31
0.0
  0
LINE
  5
320
330
21
100
AcDbEntity
  8
PAPER
100
AcDbLine
 10
1.230189488762171
 20
0.5008111735727166
 30
0.0
 11
1.230189488762171
 21
0.5512490165014013
 31
0.0
  0
LINE
  5
321
330
21
100
AcDbEntity
  8
PAPER
100
AcDbLine
 10
1.201337125912043
 20
0.5008111735727166
 30
0.0
 11
1.201337125912044
 21
0.5224977852874363
 31
0.0
  0
LINE
  5
322
330
21
100
AcDbEntity
  8
PAPER
100
AcDbLine
 10
1.207107598482069
 20
0.5008111735727166
 30
0.0
 11
1.20710759848207
 21
0.5351925580190516
 31
0.0
  0
LINE
  5
323
330
21
100
AcDbEntity
  8
PAPER
100
AcDbLine
 10
1.212878071052095
 20
0.5008111735727166
 30
0.0
 11
1.212878071052095
 21
0.5418607370250753
 31
0.0
  0
LINE
  5
324
330
21
100
AcDbEntity
  8
PAPER
100
AcDbLine
 10
1.305205632172501
 20
0.3732803025381342
 30
0.0
 11
1.305205632172501
 21
0.5524611763417225
 31
0.0
  0
LINE
  5
325
330
21
100
AcDbEntity
  8
PAPER
100
AcDbLine
 10
1.299435159602477
 20
0.3732803025381342
 30
0.0
 11
1.299435159602475
 21
0.5524611763417225
 31
0.0
  0
LINE
  5
326
330
21
100
AcDbEntity
  8
PAPER
100
AcDbLine
 10
1.293664687032449
 20
0.3938517569086384
 30
0.0
 11
1.29366468703245
 21
0.4117227115912535
 31
0.0
  0
LINE
  5
327
330
21
100
AcDbEntity
  8
PAPER
100
AcDbLine
 10
1.287894214462425
 20
0.3842186236207439
 30
0.0
 11
1.287894214462424
 21
0.407339715186329
 31
0.0
  0
LINE
  5
328
330
21
100
AcDbEntity
  8
PAPER
100
AcDbLine
 10
1.282123741892401
 20
0.379032690841379
 30
0.0
 11
1.282123741892401
 21
0.4068747107669493
 31
0.0
  0
LINE
  5
329
330
21
100
AcDbEntity
  8
PAPER
100
AcDbLine
 10
1.276353269322374
 20
0.3758317438941174
 30
0.0
 11
1.276353269322374
 21
0.4096706553578285
 31
0.0
  0
LINE
  5
32A
330
21
100
AcDbEntity
  8
PAPER
100
AcDbLine
 10
1.270582796752349
 20
0.3739980283024227
 30
0.0
 11
1.27058279675235
 21
0.4804414741321315
 31
0.0
  0
LINE
  5
32B
330
21
100
AcDbEntity
  8
PAPER
100
AcDbLine
 10
1.264812324182323
 20
0.3732946508806278
 30
0.0
 11
1.264812324182322
 21
0.4773202481066122
 31
0.0
  0
LINE
  5
32C
330
21
100
AcDbEntity
  8
PAPER
100
AcDbLine
 10
1.259041851612298
 20
0.3732803025381342
 30
0.0
 11
1.259041851612298
 21
0.4741990220810937
 31
0.0
  0
LINE
  5
32D
330
21
100
AcDbEntity
  8
PAPER
100
AcDbLine
 10
1.253271379042273
 20
0.3732803025381342
 30
0.0
 11
1.253271379042273
 21
0.4710777960555744
 31
0.0
  0
LINE
  5
32E
330
21
100
AcDbEntity
  8
PAPER
100
AcDbLine
 10
1.247500906472248
 20
0.3732803025381342
 30
0.0
 11
1.247500906472249
 21
0.4679565700300559
 31
0.0
  0
LINE
  5
32F
330
21
100
AcDbEntity
  8
PAPER
100
AcDbLine
 10
1.241730433902221
 20
0.3732803025381342
 30
0.0
 11
1.24173043390222
 21
0.4648353440045357
 31
0.0
  0
LINE
  5
330
330
21
100
AcDbEntity
  8
PAPER
100
AcDbLine
 10
1.235959961332196
 20
0.3734799268633269
 30
0.0
 11
1.235959961332195
 21
0.4617141179790173
 31
0.0
  0
LINE
  5
331
330
21
100
AcDbEntity
  8
PAPER
100
AcDbLine
 10
1.230189488762171
 20
0.3744924623784367
 30
0.0
 11
1.230189488762171
 21
0.4585928919534979
 31
0.0
  0
LINE
  5
332
330
21
100
AcDbEntity
  8
PAPER
100
AcDbLine
 10
1.224419016192147
 20
0.3764284952188237
 30
0.0
 11
1.224419016192147
 21
0.4554716659279795
 31
0.0
  0
LINE
  5
333
330
21
100
AcDbEntity
  8
PAPER
100
AcDbLine
 10
1.218648543622121
 20
0.37944687522834
 30
0.0
 11
1.218648543622122
 21
0.4519271817389744
 31
0.0
  0
LINE
  5
334
330
21
100
AcDbEntity
  8
PAPER
100
AcDbLine
 10
1.212878071052095
 20
0.3838807418546126
 30
0.0
 11
1.212878071052094
 21
0.4469750218450262
 31
0.0
  0
LINE
  5
335
330
21
100
AcDbEntity
  8
PAPER
100
AcDbLine
 10
1.207107598482069
 20
0.3905489208606176
 30
0.0
 11
1.207107598482069
 21
0.4397500811894373
 31
0.0
  0
LINE
  5
336
330
21
100
AcDbEntity
  8
PAPER
100
AcDbLine
 10
1.201337125912044
 20
0.4032436935918041
 30
0.0
 11
1.201337125912043
 21
0.4264327884905129
 31
0.0
  0
LWPOLYLINE
  5
337
330
21
100
AcDbEntity
  8
PAPER
100
AcDbPolyline
 90
        4
 70
     1
 43
0.0
 10
1.295718974745186
 20
0.4183177358485317
 10
1.295718974745186
 20
0.4601131272875233
 42
0.9999999999999998
 10
1.272492217045953
 20
0.4601131272875233
 10
1.272492217045953
 20
0.4183177358485317
 42
1.000000000000047
  0
LINE
  5
33D
330
21
100
AcDbEntity
  8
PAPER
100
AcDbLine
 10
1.426385556143036
 20
0.3917415313187778
 30
0.0
 11
1.426385556143033
 21
0.5334135857742009
 31
0.0
  0
LINE
  5
33E
330
21
100
AcDbEntity
  8
PAPER
100
AcDbLine
 10
1.420615083573008
 20
0.4114262167532593
 30
0.0
 11
1.420615083573008
 21
0.5524611763417234
 31
0.0
  0
LINE
  5
33F
330
21
100
AcDbEntity
  8
PAPER
100
AcDbLine
 10
1.409074138432958
 20
0.4507955876222017
 30
0.0
 11
1.409074138432958
 21
0.5524611763417234
 31
0.0
  0
LINE
  5
340
330
21
100
AcDbEntity
  8
PAPER
100
AcDbLine
 10
1.414844611002983
 20
0.4311109021877309
 30
0.0
 11
1.414844611002983
 21
0.5524611763417234
 31
0.0
  0
LINE
  5
341
330
21
100
AcDbEntity
  8
PAPER
100
AcDbLine
 10
1.403303665862932
 20
0.4704802730566814
 30
0.0
 11
1.403303665862934
 21
0.5524611763417234
 31
0.0
  0
LINE
  5
342
330
21
100
AcDbEntity
  8
PAPER
100
AcDbLine
 10
1.397533193292907
 20
0.4901649584911583
 30
0.0
 11
1.397533193292907
 21
0.5524611763417234
 31
0.0
  0
LINE
  5
343
330
21
100
AcDbEntity
  8
PAPER
100
AcDbLine
 10
1.385992248152856
 20
0.5295343293601088
 30
0.0
 11
1.385992248152857
 21
0.5524611763417234
 31
0.0
  0
LINE
  5
344
330
21
100
AcDbEntity
  8
PAPER
100
AcDbLine
 10
1.391762720722881
 20
0.5098496439256362
 30
0.0
 11
1.391762720722881
 21
0.5524611763417234
 31
0.0
  0
LINE
  5
345
330
21
100
AcDbEntity
  8
PAPER
100
AcDbLine
 10
1.38022177558283
 20
0.5492190147945867
 30
0.0
 11
1.380221775582831
 21
0.5524611763417234
 31
0.0
  0
LINE
  5
346
330
21
100
AcDbEntity
  8
PAPER
100
AcDbLine
 10
1.357139885302729
 20
0.3732803025381324
 30
0.0
 11
1.357139885302729
 21
0.5261300545205117
 31
0.0
  0
LINE
  5
347
330
21
100
AcDbEntity
  8
PAPER
100
AcDbLine
 10
1.351369412732704
 20
0.3732803025381324
 30
0.0
 11
1.351369412732704
 21
0.536736901921884
 31
0.0
  0
LINE
  5
348
330
21
100
AcDbEntity
  8
PAPER
100
AcDbLine
 10
1.345598940162679
 20
0.3732803025381324
 30
0.0
 11
1.345598940162679
 21
0.542856423631714
 31
0.0
  0
LINE
  5
349
330
21
100
AcDbEntity
  8
PAPER
100
AcDbLine
 10
1.339828467592653
 20
0.3732803025381324
 30
0.0
 11
1.339828467592653
 21
0.5469756378683613
 31
0.0
  0
LINE
  5
34A
330
21
100
AcDbEntity
  8
PAPER
100
AcDbLine
 10
1.334057995022629
 20
0.3732803025381324
 30
0.0
 11
1.334057995022629
 21
0.5497658499482022
 31
0.0
  0
LINE
  5
34B
330
21
100
AcDbEntity
  8
PAPER
100
AcDbLine
 10
1.328287522452602
 20
0.3732803025381333
 30
0.0
 11
1.328287522452602
 21
0.5515140515318916
 31
0.0
  0
LINE
  5
34C
330
21
100
AcDbEntity
  8
PAPER
100
AcDbLine
 10
1.322517049882577
 20
0.3732803025381333
 30
0.0
 11
1.322517049882577
 21
0.5523579631560212
 31
0.0
  0
LINE
  5
34D
330
21
100
AcDbEntity
  8
PAPER
100
AcDbLine
 10
1.316746577312552
 20
0.3732803025381333
 30
0.0
 11
1.316746577312551
 21
0.5524611763417225
 31
0.0
  0
LINE
  5
34E
330
21
100
AcDbEntity
  8
PAPER
100
AcDbLine
 10
1.310976104742527
 20
0.3732803025381342
 30
0.0
 11
1.310976104742527
 21
0.5524611763417225
 31
0.0
  0
LINE
  5
34F
330
21
100
AcDbEntity
  8
PAPER
100
AcDbLine
 10
1.443696973853109
 20
0.3335702693432709
 30
0.0
 11
1.443696973853109
 21
0.4743595294707779
 31
0.0
  0
LINE
  5
350
330
21
100
AcDbEntity
  8
PAPER
100
AcDbLine
 10
1.449467446423135
 20
0.3344909933775575
 30
0.0
 11
1.449467446423136
 21
0.4546748440363027
 31
0.0
  0
LINE
  5
351
330
21
100
AcDbEntity
  8
PAPER
100
AcDbLine
 10
1.455237918993159
 20
0.3363244157728322
 30
0.0
 11
1.455237918993159
 21
0.434990158601832
 31
0.0
  0
LINE
  5
352
330
21
100
AcDbEntity
  8
PAPER
100
AcDbLine
 10
1.461008391563187
 20
0.3392175968220312
 30
0.0
 11
1.461008391563184
 21
0.4388071730188433
 31
0.0
  0
LINE
  5
353
330
21
100
AcDbEntity
  8
PAPER
100
AcDbLine
 10
1.46677886413321
 20
0.3434775917984794
 30
0.0
 11
1.466778864133209
 21
0.4570838006461269
 31
0.0
  0
LINE
  5
354
330
21
100
AcDbEntity
  8
PAPER
100
AcDbLine
 10
1.472549336703235
 20
0.3498380648719495
 30
0.0
 11
1.472549336703237
 21
0.4753604282734159
 31
0.0
  0
LINE
  5
355
330
21
100
AcDbEntity
  8
PAPER
100
AcDbLine
 10
1.478319809273261
 20
0.3612686940363037
 30
0.0
 11
1.47831980927326
 21
0.4936370559007023
 31
0.0
  0
LINE
  5
356
330
21
100
AcDbEntity
  8
PAPER
100
AcDbLine
 10
1.437926501283085
 20
0.3334269053398244
 30
0.0
 11
1.437926501283083
 21
0.4940442149052523
 31
0.0
  0
LINE
  5
357
330
21
100
AcDbEntity
  8
PAPER
100
AcDbLine
 10
1.432156028713059
 20
0.3334269053398244
 30
0.0
 11
1.43215602871306
 21
0.5137289003397293
 31
0.0
  0
LINE
  5
358
330
21
100
AcDbEntity
  8
PAPER
100
AcDbLine
 10
1.536024534973513
 20
0.5440349630687658
 30
0.0
 11
1.536024534973513
 21
0.5524611763417234
 31
0.0
  0
LINE
  5
359
330
21
100
AcDbEntity
  8
PAPER
100
AcDbLine
 10
1.530254062403488
 20
0.5257583354414786
 30
0.0
 11
1.530254062403488
 21
0.5524611763417234
 31
0.0
  0
LINE
  5
35A
330
21
100
AcDbEntity
  8
PAPER
100
AcDbLine
 10
1.484090281843287
 20
0.3795453144231791
 30
0.0
 11
1.484090281843287
 21
0.5119136835279904
 31
0.0
  0
LINE
  5
35B
330
21
100
AcDbEntity
  8
PAPER
100
AcDbLine
 10
1.489860754413312
 20
0.3978219420504663
 30
0.0
 11
1.489860754413312
 21
0.5301903111552776
 31
0.0
  0
LINE
  5
35C
330
21
100
AcDbEntity
  8
PAPER
100
AcDbLine
 10
1.495631226983337
 20
0.4160985696777536
 30
0.0
 11
1.495631226983337
 21
0.548466938782563
 31
0.0
  0
LINE
  5
35D
330
21
100
AcDbEntity
  8
PAPER
100
AcDbLine
 10
1.501401699553362
 20
0.4343751973050417
 30
0.0
 11
1.501401699553362
 21
0.5524611763417234
 31
0.0
  0
LINE
  5
35E
330
21
100
AcDbEntity
  8
PAPER
100
AcDbLine
 10
1.507172172123388
 20
0.4526518249323289
 30
0.0
 11
1.507172172123389
 21
0.5524611763417234
 31
0.0
  0
LINE
  5
35F
330
21
100
AcDbEntity
  8
PAPER
100
AcDbLine
 10
1.512942644693415
 20
0.4709284525596223
 30
0.0
 11
1.512942644693415
 21
0.5524611763417234
 31
0.0
  0
LINE
  5
360
330
21
100
AcDbEntity
  8
PAPER
100
AcDbLine
 10
1.518713117263439
 20
0.4892050801869095
 30
0.0
 11
1.518713117263439
 21
0.5524611763417234
 31
0.0
  0
LINE
  5
361
330
21
100
AcDbEntity
  8
PAPER
100
AcDbLine
 10
1.524483589833462
 20
0.5074817078141914
 30
0.0
 11
1.524483589833462
 21
0.5524611763417234
 31
0.0
  0
ENDBLK
  5
362
330
21
100
AcDbEntity
  8
0
100
AcDbBlockEnd
  0
BLOCK
  5
597
330
595
100
AcDbEntity
  8
0
100
AcDbBlockBegin
  2
A$C0C8E303C
 70
     0
 10
0.0
 20
0.0
 30
0.0
  3
A$C0C8E303C
  1

  0
TEXT
  5
596
330
595
100
AcDbEntity
  8
PAPER
100
AcDbText
 10
-0.0133333404476792
 20
0.0133333293341025
 30
0.833359574243258
 40
0.07
  1
REV. DEC. 3, 1997
 72
     2
 11
1.016666659552321
 21
0.0133333293341025
 31
0.833359574243258
100
AcDbText
  0
ENDBLK
  5
598
330
595
100
AcDbEntity
  8
0
100
AcDbBlockEnd
  0
ENDSEC
  0
SECTION
  2
ENTITIES
  0
LINE
  5
364
330
17
100
AcDbEntity
  8
PAPER
100
AcDbLine
 10
7.159492254532871
 20
6.288011237267405
 30
0.0
 11
7.171639495536051
 21
6.284143458842666
 31
0.0
  0
LINE
  5
365
330
17
100
AcDbEntity
  8
PAPER
100
AcDbLine
 10
6.955207347768204
 20
6.249101537572969
 30
0.0
 11
6.967955491708882
 21
6.249101537572969
 31
0.0
  0
INSERT
  5
36C
330
17
100
AcDbEntity
  8
PAPER
100
AcDbBlockReference
  2
RECT
 10
2.912027220440815
 20
1.943033037236413
 30
0.0
 41
0.09375
 42
0.09375
 43
0.09375
  0
INSERT
  5
36D
330
17
100
AcDbEntity
  8
PAPER
100
AcDbBlockReference
  2
RECT
 10
2.912027220440815
 20
2.073143679600778
 30
0.0
 41
0.09375
 42
0.09375
 43
0.09375
  0
INSERT
  5
36E
330
17
100
AcDbEntity
  8
PAPER
100
AcDbBlockReference
  2
RECT
 10
2.912027220440815
 20
2.200503651075047
 30
0.0
 41
0.09375
 42
0.09375
 43
0.09375
  0
INSERT
  5
36F
330
17
100
AcDbEntity
  8
PAPER
100
AcDbBlockReference
  2
RECT
 10
2.912027220440815
 20
2.329973773319364
 30
0.0
 41
0.09375
 42
0.09375
 43
0.09375
  0
TEXT
  5
370
330
17
100
AcDbEntity
  8
PAPER
100
AcDbText
 10
3.042305113479434
 20
1.952815919618458
 30
0.0
 40
0.07
  1
100,000 CYCLE
  7
arial1
100
AcDbText
  0
TEXT
  5
371
330
17
100
AcDbEntity
  8
PAPER
100
AcDbText
 10
3.042305113479434
 20
2.084065051265548
 30
0.0
 40
0.07
  1
50,000 CYCLE
  7
arial1
100
AcDbText
  0
TEXT
  5
372
330
17
100
AcDbEntity
  8
PAPER
100
AcDbText
 10
3.042305113479434
 20
2.215314182912639
 30
0.0
 40
0.07
  1
25,000 CYCLE
  7
arial1
100
AcDbText
  0
TEXT
  5
373
330
17
100
AcDbEntity
  8
PAPER
100
AcDbText
 10
3.042305113479434
 20
2.343172123549589
 30
0.0
 40
0.07
  1
10,000 CYCLE
  7
arial1
100
AcDbText
  0
LINE
  5
374
330
17
100
AcDbEntity
  8
DEFPOINTS
  6
CENTER
100
AcDbLine
 10
-0.5
 20
0.0
 30
0.0
 11
0.5
 21
0.0
 31
0.0
  0
LINE
  5
375
330
17
100
AcDbEntity
  8
DEFPOINTS
  6
CENTER
100
AcDbLine
 10
0.0
 20
-0.5
 30
0.0
 11
0.0
 21
0.5
 31
0.0
  0
LINE
  5
376
330
17
100
AcDbEntity
  8
DEFPOINTS
  6
CENTER
100
AcDbLine
 10
11.0
 20
-0.5
 30
0.0
 11
11.0
 21
0.5
 31
0.0
  0
LINE
  5
377
330
17
100
AcDbEntity
  8
DEFPOINTS
  6
CENTER
100
AcDbLine
 10
10.5
 20
0.0
 30
0.0
 11
11.5
 21
0.0
 31
0.0
  0
LINE
  5
378
330
17
100
AcDbEntity
  8
DEFPOINTS
  6
CENTER
100
AcDbLine
 10
0.0
 20
8.0
 30
0.0
 11
0.0
 21
9.0
 31
0.0
  0
LINE
  5
379
330
17
100
AcDbEntity
  8
DEFPOINTS
  6
CENTER
100
AcDbLine
 10
-0.5
 20
8.5
 30
0.0
 11
0.5
 21
8.5
 31
0.0
  0
LINE
  5
37A
330
17
100
AcDbEntity
  8
DEFPOINTS
  6
CENTER
100
AcDbLine
 10
11.0
 20
8.0
 30
0.0
 11
11.0
 21
9.0
 31
0.0
  0
LINE
  5
37B
330
17
100
AcDbEntity
  8
DEFPOINTS
  6
CENTER
100
AcDbLine
 10
10.5
 20
8.5
 30
0.0
 11
11.5
 21
8.5
 31
0.0
  0
LINE
  5
37C
330
17
100
AcDbEntity
  8
PAPER
100
AcDbLine
 10
0.1822000000000003
 20
1.452027027027027
 30
0.0
 11
10.82409243843734
 21
1.452027027027027
 31
0.0
  0
LINE
  5
37D
330
17
100
AcDbEntity
  8
PAPER
100
AcDbLine
 10
0.1822000000000003
 20
1.459227027027026
 30
0.0
 11
10.82409243843734
 21
1.459227027027026
 31
0.0
  0
LINE
  5
37E
330
17
100
AcDbEntity
  8
PAPER
100
AcDbLine
 10
0.1822000000000003
 20
1.444827027027027
 30
0.0
 11
10.82409243843734
 21
1.444827027027027
 31
0.0
  0
TEXT
  5
37F
330
17
100
AcDbEntity
  8
PAPER
100
AcDbText
 10
9.754628690630267
 20
1.298699926226398
 30
0.0
 40
0.1008811405475445
  1
SHEET `T-2'
  7
ROMANT
 72
     2
 11
10.76344009610571
 21
1.298699926226398
 31
0.0
100
AcDbText
  0
LWPOLYLINE
  5
381
330
17
100
AcDbEntity
  8
PAPER
100
AcDbPolyline
 90
        4
 70
     1
 43
0.0
 10
0.175
 20
0.7020270270270271
 10
10.825
 20
0.7020270270270271
 10
10.825
 20
8.325000000000001
 10
0.175
 20
8.325000000000001
  0
LWPOLYLINE
  5
387
330
17
100
AcDbEntity
  8
PAPER
100
AcDbPolyline
 90
        4
 70
     1
 43
0.0
 10
0.1678
 20
0.694827027027027
 10
10.8322
 20
0.694827027027027
 10
10.8322
 20
8.3322
 10
0.1678
 20
8.332199999999998
  0
LWPOLYLINE
  5
38D
330
17
100
AcDbEntity
  8
PAPER
100
AcDbPolyline
 90
        4
 70
     1
 43
0.0
 10
0.1822
 20
0.7092270270270271
 10
10.8178
 20
0.7092270270270271
 10
10.8178
 20
8.3178
 10
0.1822
 20
8.3178
  0
TEXT
  5
3B6
330
17
100
AcDbEntity
  8
PAPER
100
AcDbText
 10
5.595978061993322
 20
5.487815193032518
 30
0.0
 40
0.07
  1
%%USPRING BUMPER:
  7
arial1
100
AcDbText
  0
LINE
  5
3B7
330
17
100
AcDbEntity
  8
PAPER
100
AcDbLine
 10
7.081876297499026
 20
6.150768882993465
 30
0.0
 11
6.967955491708881
 21
6.150768882993465
 31
0.0
  0
LINE
  5
3B8
330
17
100
AcDbEntity
  8
PAPER
100
AcDbLine
 10
7.081876297499026
 20
6.199088547418464
 30
0.0
 11
7.081876297499026
 21
6.150768882993465
 31
0.0
  0
LINE
  5
3B9
330
17
100
AcDbEntity
  8
PAPER
100
AcDbLine
 10
6.967955491708881
 20
6.199088547418464
 30
0.0
 11
7.081876297499026
 21
6.199088547418464
 31
0.0
  0
LWPOLYLINE
  5
3BA
330
17
100
AcDbEntity
  8
PAPER
100
AcDbPolyline
 90
        4
 70
     0
 43
0.0
 10
6.967955491708882
 20
6.249101537572969
 10
6.967955491708882
 20
6.029730515671436
 42
0.8557839920306282
 10
7.07178684801757
 20
6.013494656828465
 42
0.0004912296420222
 10
7.159492254532871
 20
6.288011237267405
 42
0.0004912296420222
  0
LWPOLYLINE
  5
3C0
330
17
100
AcDbEntity
  8
PAPER
100
AcDbPolyline
 90
        4
 70
     0
 43
0.0
 10
6.955207347768204
 20
6.249101537572969
 10
6.955207347768204
 20
6.029730515671436
 42
0.855783992030626
 10
7.083926465706952
 20
6.009603017548152
 42
0.0004912296420222
 10
7.171639495536051
 20
6.284143458842666
 42
0.1553612620775308
  0
POINT
  5
3C6
330
17
100
AcDbEntity
  8
PAPER
100
AcDbPoint
 10
7.053909553863856
 20
6.174503227807822
 30
0.0
  0
POINT
  5
3C7
330
17
100
AcDbEntity
  8
PAPER
100
AcDbPoint
 10
6.997742731557641
 20
6.174503227807822
 30
0.0
  0
TEXT
  5
3C8
330
17
100
AcDbEntity
  8
PAPER
100
AcDbText
 10
3.84050501547715
 20
6.138729145466188
 30
0.0
 40
0.07
  1
%%uTROLLEY OPERATOR:
  7
ARIAL2
100
AcDbText
  0
LWPOLYLINE
  5
3C9
330
17
100
AcDbEntity
  8
PAPER
100
AcDbPolyline
 90
        5
 70
     0
 43
0.0
 10
2.259014104200042
 20
3.058623821123434
 10
2.334014104200043
 20
3.058623821123434
 10
2.334014104200043
 20
2.833623821123433
 10
2.259014104200042
 20
2.833623821123433
 10
2.259014104200042
 20
2.862198821123432
  0
LWPOLYLINE
  5
3D0
330
17
100
AcDbEntity
  8
PAPER
100
AcDbPolyline
 90
        2
 70
     0
 43
0.0
 10
2.259014104200042
 20
3.030048821123433
 10
2.259014104200042
 20
3.058623821123434
  0
LINE
  5
3D4
330
17
100
AcDbEntity
  8
PAPER
100
AcDbLine
 10
2.295577442806512
 20
2.862198821123434
 30
0.0
 11
2.316435979200041
 21
2.938932485094562
 31
0.0
  0
LINE
  5
3D5
330
17
100
AcDbEntity
  8
PAPER
100
AcDbLine
 10
1.270742900223545
 20
2.862198821123434
 30
0.0
 11
1.316369619351296
 21
3.030048821123433
 31
0.0
  0
LINE
  5
3D6
330
17
100
AcDbEntity
  8
PAPER
100
AcDbLine
 10
1.304171192806512
 20
2.862198821123434
 30
0.0
 11
1.349797911934263
 21
3.030048821123433
 31
0.0
  0
LINE
  5
3D7
330
17
100
AcDbEntity
  8
PAPER
100
AcDbLine
 10
1.334639942806512
 20
2.862198821123434
 30
0.0
 11
1.380266661934262
 21
3.030048821123433
 31
0.0
  0
LINE
  5
3D8
330
17
100
AcDbEntity
  8
PAPER
100
AcDbLine
 10
1.365108692806513
 20
2.862198821123434
 30
0.0
 11
1.410735411934262
 21
3.030048821123433
 31
0.0
  0
LINE
  5
3D9
330
17
100
AcDbEntity
  8
PAPER
100
AcDbLine
 10
2.269796192806513
 20
2.862198821123434
 30
0.0
 11
2.315422911934263
 21
3.030048821123433
 31
0.0
  0
LINE
  5
3DA
330
17
100
AcDbEntity
  8
PAPER
100
AcDbLine
 10
2.246358692806513
 20
2.862198821123434
 30
0.0
 11
2.291985411934263
 21
3.030048821123433
 31
0.0
  0
LINE
  5
3DB
330
17
100
AcDbEntity
  8
PAPER
100
AcDbLine
 10
2.220577442806512
 20
2.862198821123434
 30
0.0
 11
2.266204161934263
 21
3.030048821123433
 31
0.0
  0
LINE
  5
3DC
330
17
100
AcDbEntity
  8
PAPER
100
AcDbLine
 10
1.270742900223545
 20
2.972020850807822
 30
0.0
 11
1.286516661934262
 21
3.030048821123433
 31
0.0
  0
LINE
  5
3DD
330
17
100
AcDbEntity
  8
PAPER
100
AcDbLine
 10
1.270742900223546
 20
3.030048821123433
 30
0.0
 11
1.270742900223545
 21
2.862198821123434
 31
0.0
  0
LINE
  5
3DE
330
17
100
AcDbEntity
  8
PAPER
100
AcDbLine
 10
1.228240133116312
 20
3.030048821123433
 30
0.0
 11
1.228240133116312
 21
2.862198821123434
 31
0.0
  0
LINE
  5
3DF
330
17
100
AcDbEntity
  8
PAPER
100
AcDbLine
 10
2.316435979200043
 20
3.030048821123433
 30
0.0
 11
1.228240133116312
 21
3.030048821123433
 31
0.0
  0
LINE
  5
3E0
330
17
100
AcDbEntity
  8
PAPER
100
AcDbLine
 10
2.316435979200043
 20
2.862198821123434
 30
0.0
 11
1.228240133116312
 21
2.862198821123434
 31
0.0
  0
LINE
  5
3E1
330
17
100
AcDbEntity
  8
PAPER
100
AcDbLine
 10
2.326982854200042
 20
2.839041644594876
 30
0.0
 11
2.316435979200043
 21
2.839041644594876
 31
0.0
  0
LINE
  5
3E2
330
17
100
AcDbEntity
  8
PAPER
100
AcDbLine
 10
2.326982854200042
 20
3.053205997651988
 30
0.0
 11
2.316435979200043
 21
3.053205997651988
 31
0.0
  0
LINE
  5
3E3
330
17
100
AcDbEntity
  8
PAPER
100
AcDbLine
 10
2.316435979200043
 20
3.053205997651988
 30
0.0
 11
2.316435979200043
 21
2.839041644594876
 31
0.0
  0
LINE
  5
3E4
330
17
100
AcDbEntity
  8
PAPER
100
AcDbLine
 10
2.344560979200042
 20
2.972020850807822
 30
0.0
 11
2.360334740910759
 21
3.030048821123433
 31
0.0
  0
LINE
  5
3E5
330
17
100
AcDbEntity
  8
PAPER
100
AcDbLine
 10
3.294395521783008
 20
2.862198821123434
 30
0.0
 11
3.34002224091076
 21
3.030048821123433
 31
0.0
  0
LINE
  5
3E6
330
17
100
AcDbEntity
  8
PAPER
100
AcDbLine
 10
3.320176771783009
 20
2.862198821123434
 30
0.0
 11
3.365803490910757
 21
3.030048821123433
 31
0.0
  0
LINE
  5
3E7
330
17
100
AcDbEntity
  8
PAPER
100
AcDbLine
 10
3.343614271783009
 20
2.862198821123434
 30
0.0
 11
3.389240990910757
 21
3.030048821123433
 31
0.0
  0
LINE
  5
3E8
330
17
100
AcDbEntity
  8
PAPER
100
AcDbLine
 10
3.369395521783007
 20
2.862198821123434
 30
0.0
 11
3.390254058176538
 21
2.938932485094562
 31
0.0
  0
LINE
  5
3E9
330
17
100
AcDbEntity
  8
PAPER
100
AcDbLine
 10
2.438926771783009
 20
2.862198821123434
 30
0.0
 11
2.48455349091076
 21
3.030048821123433
 31
0.0
  0
LINE
  5
3EA
330
17
100
AcDbEntity
  8
PAPER
100
AcDbLine
 10
2.408458021783008
 20
2.862198821123434
 30
0.0
 11
2.454084740910759
 21
3.030048821123433
 31
0.0
  0
LINE
  5
3EB
330
17
100
AcDbEntity
  8
PAPER
100
AcDbLine
 10
2.377989271783008
 20
2.862198821123434
 30
0.0
 11
2.423615990910759
 21
3.030048821123433
 31
0.0
  0
LINE
  5
3EC
330
17
100
AcDbEntity
  8
PAPER
100
AcDbLine
 10
2.344560979200042
 20
2.862198821123434
 30
0.0
 11
2.390187698327792
 21
3.030048821123433
 31
0.0
  0
LINE
  5
3ED
330
17
100
AcDbEntity
  8
PAPER
100
AcDbLine
 10
3.390254058176538
 20
3.030048821123433
 30
0.0
 11
3.390254058176538
 21
2.862198821123434
 31
0.0
  0
LINE
  5
3EE
330
17
100
AcDbEntity
  8
PAPER
100
AcDbLine
 10
3.43275682528377
 20
3.030048821123433
 30
0.0
 11
3.432756825283772
 21
2.862198821123434
 31
0.0
  0
LINE
  5
3EF
330
17
100
AcDbEntity
  8
PAPER
100
AcDbLine
 10
3.432756825283772
 20
2.964873821123434
 30
0.0
 11
4.055204110845974
 21
2.964873821123434
 31
0.0
  0
LINE
  5
3F0
330
17
100
AcDbEntity
  8
PAPER
100
AcDbLine
 10
3.432756825283772
 20
2.927373821123432
 30
0.0
 11
4.055204110845974
 21
2.927373821123432
 31
0.0
  0
LINE
  5
3F1
330
17
100
AcDbEntity
  8
PAPER
100
AcDbLine
 10
2.344560979200042
 20
3.030048821123433
 30
0.0
 11
3.43275682528377
 21
3.030048821123433
 31
0.0
  0
LINE
  5
3F2
330
17
100
AcDbEntity
  8
PAPER
100
AcDbLine
 10
2.344560979200042
 20
2.862198821123434
 30
0.0
 11
3.43275682528377
 21
2.862198821123434
 31
0.0
  0
LINE
  5
3F3
330
17
100
AcDbEntity
  8
PAPER
100
AcDbLine
 10
2.344560979200042
 20
3.053205997651988
 30
0.0
 11
2.344560979200042
 21
2.839041644594876
 31
0.0
  0
LINE
  5
3F4
330
17
100
AcDbEntity
  8
PAPER
100
AcDbLine
 10
2.334014104200043
 20
3.053205997651988
 30
0.0
 11
2.344560979200042
 21
3.053205997651988
 31
0.0
  0
LINE
  5
3F5
330
17
100
AcDbEntity
  8
PAPER
100
AcDbLine
 10
2.334014104200043
 20
2.839041644594876
 30
0.0
 11
2.344560979200042
 21
2.839041644594876
 31
0.0
  0
LINE
  5
3F6
330
17
100
AcDbEntity
  8
PAPER
100
AcDbLine
 10
2.326982854200042
 20
3.058623821123434
 30
0.0
 11
2.326982854200042
 21
2.833623821123433
 31
0.0
  0
LINE
  5
3F7
330
17
100
AcDbEntity
  8
PAPER
100
AcDbLine
 10
0.6523655614063552
 20
2.927373821123434
 30
0.0
 11
1.228240133116312
 21
2.927373821123434
 31
0.0
  0
LINE
  5
3F8
330
17
100
AcDbEntity
  8
PAPER
100
AcDbLine
 10
0.6523655614063552
 20
2.964873821123434
 30
0.0
 11
1.228240133116312
 21
2.964873821123434
 31
0.0
  0
LINE
  5
3F9
330
17
100
AcDbEntity
  8
PAPER
100
AcDbLine
 10
4.340407624328085
 20
2.927373821123432
 30
0.0
 11
4.340407624328085
 21
2.964873821123434
 31
0.0
  0
LINE
  5
3FA
330
17
100
AcDbEntity
  8
PAPER
100
AcDbLine
 10
0.3864034345471108
 20
2.927373821123432
 30
0.0
 11
0.3864034345471108
 21
2.964873821123434
 31
0.0
  0
LINE
  5
3FB
330
17
100
AcDbEntity
  8
PAPER
100
AcDbLine
 10
0.3864034345471108
 20
2.927373821123432
 30
0.0
 11
0.483607123906355
 21
2.927373821123432
 31
0.0
  0
LINE
  5
3FC
330
17
100
AcDbEntity
  8
PAPER
100
AcDbLine
 10
0.3864034345471108
 20
2.964873821123434
 30
0.0
 11
0.483607123906355
 21
2.964873821123434
 31
0.0
  0
LINE
  5
3FD
330
17
100
AcDbEntity
  8
PAPER
  6
CENTER
100
AcDbLine
 10
0.2972972972972974
 20
2.946123821123433
 30
0.0
 11
4.432432432432432
 21
2.946123821123433
 31
0.0
  0
LWPOLYLINE
  5
3FE
330
17
100
AcDbEntity
  8
PAPER
100
AcDbPolyline
 90
        4
 70
     1
 43
0.0
 10
4.055204110845974
 20
2.833618196123433
 10
4.055204110845974
 20
3.058629446123434
 10
4.064579579595974
 20
3.058629446123434
 10
4.064579579595974
 20
2.833618196123433
  0
LWPOLYLINE
  5
404
330
17
100
AcDbEntity
  8
PAPER
100
AcDbPolyline
 90
        4
 70
     1
 43
0.0
 10
4.214587079595974
 20
2.833618196123433
 10
4.214587079595974
 20
3.058629446123434
 10
4.223962548345973
 20
3.058629446123434
 10
4.223962548345973
 20
2.833618196123433
  0
ARC
  5
40A
330
17
100
AcDbEntity
  8
PAPER
100
AcDbCircle
 10
4.139583329595973
 20
3.276497481837719
 30
0.0
 40
0.2422710926903082
100
AcDbArc
 50
251.9657144328701
 51
288.0342855671299
  0
ARC
  5
40B
330
17
100
AcDbEntity
  8
PAPER
100
AcDbCircle
 10
4.139583329595973
 20
2.615750160409147
 30
0.0
 40
0.2422710926903082
100
AcDbArc
 50
71.96571443287012
 51
108.0342855671299
  0
LINE
  5
40C
330
17
100
AcDbEntity
  8
PAPER
100
AcDbLine
 10
4.077080204595975
 20
3.025815305498434
 30
0.0
 11
4.077080204595975
 21
2.910184524248433
 31
0.0
  0
LINE
  5
40D
330
17
100
AcDbEntity
  8
PAPER
100
AcDbLine
 10
4.086455673345974
 20
2.993001164873434
 30
0.0
 11
4.086455673345974
 21
2.892996164873433
 31
0.0
  0
LINE
  5
40E
330
17
100
AcDbEntity
  8
PAPER
100
AcDbLine
 10
4.095831142095974
 20
3.008626946123434
 30
0.0
 11
4.095831142095974
 21
2.902371633623432
 31
0.0
  0
LINE
  5
40F
330
17
100
AcDbEntity
  8
PAPER
100
AcDbLine
 10
0.611738530156355
 20
3.008626946123434
 30
0.0
 11
0.611738530156355
 21
2.902371633623432
 31
0.0
  0
LINE
  5
410
330
17
100
AcDbEntity
  8
PAPER
100
AcDbLine
 10
0.6211139989063551
 20
2.993001164873434
 30
0.0
 11
0.6211139989063551
 21
2.892996164873433
 31
0.0
  0
LINE
  5
411
330
17
100
AcDbEntity
  8
PAPER
100
AcDbLine
 10
0.6304894676563551
 20
3.025815305498434
 30
0.0
 11
0.6304894676563551
 21
2.910184524248433
 31
0.0
  0
ARC
  5
412
330
17
100
AcDbEntity
  8
PAPER
100
AcDbCircle
 10
0.5679863426563551
 20
2.615750160409147
 30
0.0
 40
0.2422710926903082
100
AcDbArc
 50
71.96571443287012
 51
108.0342855671299
  0
ARC
  5
413
330
17
100
AcDbEntity
  8
PAPER
100
AcDbCircle
 10
0.5679863426563551
 20
3.276497481837719
 30
0.0
 40
0.2422710926903082
100
AcDbArc
 50
251.9657144328701
 51
288.0342855671299
  0
LWPOLYLINE
  5
414
330
17
100
AcDbEntity
  8
PAPER
100
AcDbPolyline
 90
        4
 70
     1
 43
0.0
 10
0.4929825926563555
 20
2.833618196123433
 10
0.4929825926563555
 20
3.058629446123434
 10
0.483607123906355
 20
3.058629446123434
 10
0.483607123906355
 20
2.833618196123433
  0
LWPOLYLINE
  5
41A
330
17
100
AcDbEntity
  8
PAPER
100
AcDbPolyline
 90
        4
 70
     1
 43
0.0
 10
0.6523655614063552
 20
2.833618196123433
 10
0.6523655614063552
 20
3.058629446123434
 10
0.6429900926563552
 20
3.058629446123434
 10
0.6429900926563552
 20
2.833618196123433
  0
LINE
  5
420
330
17
100
AcDbEntity
  8
PAPER
100
AcDbLine
 10
0.5017992306345347
 20
2.343964994520634
 30
0.0
 11
0.5017992306345347
 21
2.841829438820392
 31
0.0
  0
TEXT
  5
421
330
17
100
AcDbEntity
  8
PAPER
100
AcDbText
 10
5.392149119958903
 20
8.066165528756776
 30
0.0
 40
0.07
  1
INTERMEDIATE HORIZONTAL
  7
ARIAL2
100
AcDbText
  0
TEXT
  5
422
330
17
100
AcDbEntity
  8
PAPER
100
AcDbText
 10
5.392149119958903
 20
7.938994438747848
 30
0.0
 40
0.07
  1
%%uTRACK SUPPORT: (BY INSTALLER)
  7
ARIAL2
100
AcDbText
  0
TEXT
  5
423
330
17
100
AcDbEntity
  8
PAPER
100
AcDbText
 10
7.927336033462428
 20
3.835240145127555
 30
0.0
 40
0.07
  1
%%uVERTICAL TRACK:
  7
ARIAL2
100
AcDbText
  0
TEXT
  5
424
330
17
100
AcDbEntity
  8
PAPER
100
AcDbText
 10
6.889305607543447
 20
5.655990901441636
 30
0.0
 40
0.07
  1
%%uHORIZONTAL TRACK:
  7
ARIAL2
100
AcDbText
  0
TEXT
  5
425
330
17
100
AcDbEntity
  8
PAPER
100
AcDbText
 10
8.543230338802258
 20
5.534621421483478
 30
0.0
 40
0.07
  1
%%URADIUS:
  7
ARIAL2
100
AcDbText
  0
SOLID
  5
426
330
17
100
AcDbEntity
  8
PAPER
100
AcDbTrace
 10
7.995493023730575
 20
6.569869671578628
 30
0.0
 11
7.974538227210874
 21
6.559606097773061
 31
0.0
 12
8.01580634688743
 22
6.50187349511674
 32
0.0
 13
8.01580634688743
 23
6.50187349511674
 33
0.0
  0
LINE
  5
427
330
17
100
AcDbEntity
  8
PAPER
100
AcDbLine
 10
7.985015625470725
 20
6.564737884675845
 30
0.0
 11
7.231332027292078
 21
8.103508564290578
 31
0.0
  0
LINE
  5
428
330
17
100
AcDbEntity
  8
PAPER
100
AcDbLine
 10
7.231332027292078
 20
8.103508564290578
 30
0.0
 11
6.857270095105459
 21
8.103508564290578
 31
0.0
  0
TEXT
  5
429
330
17
100
AcDbEntity
  8
PAPER
100
AcDbText
 10
5.460013681024229
 20
7.640109781259629
 30
0.0
 40
0.07
  1
  (DOORS TO 12'0" HIGH)
  7
arial1
100
AcDbText
  0
INSERT
  5
42A
330
17
100
AcDbEntity
  8
PAPER
100
AcDbBlockReference
  2
RECT
 10
5.393969387462561
 20
7.711968269476629
 30
0.0
 41
0.09375
 42
0.09375
 43
0.09375
  0
TEXT
  5
42B
330
17
100
AcDbEntity
  8
PAPER
100
AcDbText
 10
5.460013681024229
 20
7.73018496390699
 30
0.0
 40
0.07
  1
  NO
  7
arial1
100
AcDbText
  0
INSERT
  5
42C
330
17
100
AcDbEntity
  8
PAPER
100
AcDbBlockReference
  2
RECT
 10
5.393969387462561
 20
7.477772794593488
 30
0.0
 41
0.09375
 42
0.09375
 43
0.09375
  0
TEXT
  5
42D
330
17
100
AcDbEntity
  8
PAPER
100
AcDbText
 10
5.460013681024229
 20
7.486103074571347
 30
0.0
 40
0.07
  1
  YES
  7
arial1
100
AcDbText
  0
TEXT
  5
42E
330
17
100
AcDbEntity
  8
PAPER
100
AcDbText
 10
5.460013681024229
 20
7.396027891923986
 30
0.0
 40
0.07
  1
  (DOORS FROM 12'3" HIGH)
  7
arial1
100
AcDbText
  0
SOLID
  5
42F
330
17
100
AcDbEntity
  8
PAPER
100
AcDbTrace
 10
9.242102627431181
 20
5.861649606488097
 30
0.0
 11
9.264159412774484
 21
5.854037598555636
 31
0.0
 12
9.275967043900218
 22
5.924013958551778
 32
0.0
 13
9.275967043900218
 23
5.924013958551778
 33
0.0
  0
LINE
  5
430
330
17
100
AcDbEntity
  8
PAPER
100
AcDbLine
 10
9.253131020102832
 20
5.857843602521866
 30
0.0
 11
9.151061645627846
 21
5.562084283444002
 31
0.0
  0
LINE
  5
431
330
17
100
AcDbEntity
  8
PAPER
100
AcDbLine
 10
9.151061645627846
 20
5.562084283444002
 30
0.0
 11
8.976251232340123
 21
5.562084283444002
 31
0.0
  0
SOLID
  5
432
330
17
100
AcDbEntity
  8
PAPER
100
AcDbTrace
 10
8.434275294203326
 20
6.03836331839702
 30
0.0
 11
8.455478460087268
 21
6.028623184879323
 31
0.0
 12
8.474097277698385
 22
6.097102749289992
 32
0.0
 13
8.474097277698385
 23
6.097102749289992
 33
0.0
  0
LINE
  5
433
330
17
100
AcDbEntity
  8
PAPER
100
AcDbLine
 10
8.444876877145299
 20
6.033493251638172
 30
0.0
 11
8.286281516772172
 21
5.688249140938347
 31
0.0
  0
LINE
  5
434
330
17
100
AcDbEntity
  8
PAPER
100
AcDbLine
 10
8.286281516772172
 20
5.688249140938347
 30
0.0
 11
8.027049182788651
 21
5.688249140938347
 31
0.0
  0
SOLID
  5
435
330
17
100
AcDbEntity
  8
PAPER
100
AcDbTrace
 10
6.924833711995032
 20
5.940921153589458
 30
0.0
 11
6.942349436821779
 21
5.92550545288407
 31
0.0
 12
6.979838676524567
 22
5.985760477717008
 32
0.0
 13
6.979838676524567
 23
5.985760477717008
 33
0.0
  0
LINE
  5
436
330
17
100
AcDbEntity
  8
PAPER
100
AcDbLine
 10
6.933591574408406
 20
5.933213303236763
 30
0.0
 11
6.569568847168755
 21
5.519601100790224
 31
0.0
  0
LINE
  5
437
330
17
100
AcDbEntity
  8
PAPER
100
AcDbLine
 10
6.569568847168755
 20
5.519601100790224
 30
0.0
 11
6.499568847168755
 21
5.519601100790224
 31
0.0
  0
SOLID
  5
438
330
17
100
AcDbEntity
  8
PAPER
100
AcDbTrace
 10
9.445612403130661
 20
4.130201353561785
 30
0.0
 11
9.45660403906618
 21
4.109619118894348
 31
0.0
 12
9.512854925100731
 22
4.152885144034629
 32
0.0
 13
9.512854925100731
 23
4.152885144034629
 33
0.0
  0
LINE
  5
439
330
17
100
AcDbEntity
  8
PAPER
100
AcDbLine
 10
9.45110822109842
 20
4.119910236228067
 30
0.0
 11
8.974491041847516
 21
3.86537992892238
 31
0.0
  0
LINE
  5
43A
330
17
100
AcDbEntity
  8
PAPER
100
AcDbLine
 10
8.974491041847516
 20
3.86537992892238
 30
0.0
 11
8.904491041847515
 21
3.86537992892238
 31
0.0
  0
TEXT
  5
43B
330
17
100
AcDbEntity
  8
PAPER
100
AcDbText
 10
7.24465476270167
 20
5.506718373469553
 30
0.0
 40
0.07
  1
16 GA. UPPER
  7
arial1
100
AcDbText
  0
TEXT
  5
43C
330
17
100
AcDbEntity
  8
PAPER
100
AcDbText
 10
7.24465476270167
 20
5.408494600449934
 30
0.0
 40
0.07
  1
14 GA. MIN. LOWER
  7
arial1
100
AcDbText
  0
TEXT
  5
43D
330
17
100
AcDbEntity
  8
PAPER
100
AcDbText
 10
7.24465476270167
 20
5.27338504013622
 30
0.0
 40
0.07
  1
12 GA. UPPER
  7
arial1
100
AcDbText
  0
TEXT
  5
43E
330
17
100
AcDbEntity
  8
PAPER
100
AcDbText
 10
7.24465476270167
 20
5.175161267116601
 30
0.0
 40
0.07
  1
12 GA. LOWER
  7
arial1
100
AcDbText
  0
TEXT
  5
43F
330
17
100
AcDbEntity
  8
PAPER
100
AcDbText
 10
8.549811572037461
 20
5.397847162885653
 30
0.0
 40
0.07
  1
12" R. UPPER
  7
arial1
100
AcDbText
  0
TEXT
  5
440
330
17
100
AcDbEntity
  8
PAPER
100
AcDbText
 10
8.549811572037461
 20
5.291784545528105
 30
0.0
 40
0.07
  1
15" R. LOWER
  7
arial1
100
AcDbText
  0
TEXT
  5
441
330
17
100
AcDbEntity
  8
PAPER
100
AcDbText
 10
4.018410841937694
 20
5.816014273103005
 30
0.0
 40
0.07
  1
NO
  7
arial1
100
AcDbText
  0
TEXT
  5
442
330
17
100
AcDbEntity
  8
PAPER
100
AcDbText
 10
4.018410841937694
 20
5.971359950330359
 30
0.0
 40
0.07
  1
YES
  7
arial1
100
AcDbText
  0
INSERT
  5
443
330
17
100
AcDbEntity
  8
PAPER
100
AcDbBlockReference
  2
RECT
 10
3.858744664562827
 20
5.803144233770446
 30
0.0
 41
0.09375
 42
0.09375
 43
0.09375
  0
INSERT
  5
444
330
17
100
AcDbEntity
  8
PAPER
100
AcDbBlockReference
  2
RECT
 10
3.858744664562827
 20
5.959352052547608
 30
0.0
 41
0.09375
 42
0.09375
 43
0.09375
  0
INSERT
  5
445
330
17
100
AcDbEntity
  8
PAPER
100
AcDbBlockReference
  2
RECT
 10
7.945575682548104
 20
3.394613496217699
 30
0.0
 41
0.09375
 42
0.09375
 43
0.09375
  0
INSERT
  5
446
330
17
100
AcDbEntity
  8
PAPER
100
AcDbBlockReference
  2
RECT
 10
7.945575682548104
 20
3.628808971100839
 30
0.0
 41
0.09375
 42
0.09375
 43
0.09375
  0
TEXT
  5
447
330
17
100
AcDbEntity
  8
PAPER
100
AcDbText
 10
8.105241859922969
 20
3.354410510802521
 30
0.0
 40
0.07
  1
3" TRACK
  7
arial1
100
AcDbText
  0
TEXT
  5
448
330
17
100
AcDbEntity
  8
PAPER
100
AcDbText
 10
8.105241859922969
 20
3.45263428382214
 30
0.0
 40
0.07
  1
12 GA.
  7
arial1
100
AcDbText
  0
TEXT
  5
449
330
17
100
AcDbEntity
  8
PAPER
100
AcDbText
 10
8.105241859922969
 20
3.587743844135854
 30
0.0
 40
0.07
  1
2" TRACK
  7
arial1
100
AcDbText
  0
TEXT
  5
44A
330
17
100
AcDbEntity
  8
PAPER
100
AcDbText
 10
8.105241859922969
 20
3.685967617155473
 30
0.0
 40
0.07
  1
16 GA. MIN. 
  7
arial1
100
AcDbText
  0
INSERT
  5
44B
330
17
100
AcDbEntity
  8
PAPER
100
AcDbBlockReference
  2
RECT
 10
5.614217711078999
 20
5.308438100113938
 30
0.0
 41
0.09375
 42
0.09375
 43
0.09375
  0
INSERT
  5
44C
330
17
100
AcDbEntity
  8
PAPER
100
AcDbBlockReference
  2
RECT
 10
5.614217711078999
 20
5.152230281336775
 30
0.0
 41
0.09375
 42
0.09375
 43
0.09375
  0
TEXT
  5
44D
330
17
100
AcDbEntity
  8
PAPER
100
AcDbText
 10
5.773883888453865
 20
5.320445997896689
 30
0.0
 40
0.07
  1
YES (OPTIONAL)
  7
arial1
100
AcDbText
  0
TEXT
  5
44E
330
17
100
AcDbEntity
  8
PAPER
100
AcDbText
 10
5.773883888453865
 20
5.165100320669334
 30
0.0
 40
0.07
  1
NO
  7
arial1
100
AcDbText
  0
SOLID
  5
44F
330
17
100
AcDbEntity
  8
PAPER
100
AcDbTrace
 10
9.284950173346699
 20
6.275203639240691
 30
0.0
 11
9.262077079711156
 21
6.270592128427074
 31
0.0
 12
9.287348158969782
 22
6.204278602927253
 32
0.0
 13
9.287348158969782
 23
6.204278602927253
 33
0.0
  0
LINE
  5
450
330
17
100
AcDbEntity
  8
PAPER
100
AcDbLine
 10
9.273513626528929
 20
6.272897883833883
 30
0.0
 11
8.949172145118092
 21
7.881631631631632
 31
0.0
  0
LINE
  5
451
330
17
100
AcDbEntity
  8
PAPER
100
AcDbLine
 10
8.949172145118089
 20
7.881631631631631
 30
0.0
 11
8.879172145118088
 21
7.881631631631631
 31
0.0
  0
TEXT
  5
452
330
17
100
AcDbEntity
  8
PAPER
100
AcDbText
 10
7.925028000973942
 20
7.846631631631631
 30
0.0
 40
0.07
  1
%%USTARTER ANGLE:
  7
ARIAL2
100
AcDbText
  0
TEXT
  5
453
330
17
100
AcDbEntity
  8
PAPER
100
AcDbText
 10
7.925028000973942
 20
7.729964964964965
 30
0.0
 40
0.07
  1
12 GA.
  7
arial1
100
AcDbText
  0
TEXT
  5
456
330
17
100
AcDbEntity
  8
PAPER
100
AcDbText
 10
7.506635610135606
 20
4.782001739362527
 30
0.0
 40
0.07
  1
DOOR HEIGHT + 23" (2" TRACK)
  7
arial1
 72
     4
 11
8.249084450517598
 21
4.807332571558981
 31
0.0
100
AcDbText
  0
TEXT
  5
457
330
17
100
AcDbEntity
  8
PAPER
100
AcDbText
 10
7.506635610135606
 20
4.665335072695862
 30
0.0
 40
0.07
  1
DOOR HEIGHT + 25" (3" TRACK)
  7
arial1
 72
     4
 11
8.249084450517598
 21
4.690665904892314
 31
0.0
100
AcDbText
  0
TEXT
  5
458
330
17
100
AcDbEntity
  8
PAPER
100
AcDbText
 10
7.084643226264112
 20
4.185644632078597
 30
0.0
 40
0.07
  1
DOOR HEIGHT + 4'-0"
  7
arial1
 72
     4
 11
7.582712803344603
 21
4.220668506567001
 31
0.0
100
AcDbText
  0
LINE
  5
459
330
17
100
AcDbEntity
  8
PAPER
100
AcDbLine
 10
5.023820489663872
 20
6.169668398483656
 30
0.0
 11
4.953820489663872
 21
6.169668398483656
 31
0.0
  0
LINE
  5
45A
330
17
100
AcDbEntity
  8
PAPER
100
AcDbLine
 10
5.680175926150219
 20
6.389136986078952
 30
0.0
 11
5.023820489663872
 21
6.169668398483656
 31
0.0
  0
SOLID
  5
45B
330
17
100
AcDbEntity
  8
PAPER
100
AcDbTrace
 10
5.683875617479646
 20
6.378072475462658
 30
0.0
 11
5.676476234820792
 21
6.400201496695245
 31
0.0
 12
5.74656298984798
 22
6.411335134055518
 32
0.0
 13
5.74656298984798
 23
6.411335134055518
 33
0.0
  0
SOLID
  5
45C
330
17
100
AcDbEntity
  8
PAPER
100
AcDbTrace
 10
6.714663360815843
 20
6.450013787167254
 30
0.0
 11
6.69871679409395
 21
6.432979954532505
 31
0.0
 12
6.757791575359145
 22
6.3936571706842
 32
0.0
 13
6.757791575359145
 23
6.3936571706842
 33
0.0
  0
LINE
  5
45D
330
17
100
AcDbEntity
  8
PAPER
100
AcDbLine
 10
6.706690077454896
 20
6.441496870849879
 30
0.0
 11
6.122020669317968
 21
6.988846955063173
 31
0.0
  0
LINE
  5
45E
330
17
100
AcDbEntity
  8
PAPER
100
AcDbLine
 10
6.122020669317966
 20
6.988846955063171
 30
0.0
 11
5.5
 21
6.988846955063171
 31
0.0
  0
TEXT
  5
45F
330
17
100
AcDbEntity
  8
PAPER
100
AcDbText
 10
4.665753937238648
 20
6.953846955063171
 30
0.0
 40
0.07
  1
%%UREAR HANGER:
  7
ARIAL2
100
AcDbText
  0
TEXT
  5
460
330
17
100
AcDbEntity
  8
PAPER
100
AcDbText
 10
4.665753937238648
 20
6.837180288396504
 30
0.0
 40
0.07
  1
(SUPPLIED BY INSTALLER)
  7
arial1
100
AcDbText
  0
LWPOLYLINE
  5
461
330
17
100
AcDbEntity
  8
PAPER
100
AcDbPolyline
 90
        3
 70
     0
 43
0.0
 10
2.553159105282186
 20
3.195585864773615
 10
2.053159105282186
 20
3.195585864773615
 10
2.053159105282186
 20
3.030048821123433
  0
LWPOLYLINE
  5
466
330
17
100
AcDbEntity
  8
PAPER
100
AcDbPolyline
 90
        4
 70
     0
 43
0.0
 10
2.053159105282186
 20
2.862198821123433
 10
2.053159105282186
 20
2.695585864773615
 10
2.553159105282186
 20
2.695585864773615
 10
2.553159105282186
 20
2.862198821123434
  0
LWPOLYLINE
  5
46C
330
17
100
AcDbEntity
  8
PAPER
100
AcDbPolyline
 90
        2
 70
     0
 43
0.0
 10
2.553159105282186
 20
3.030048821123433
 10
2.553159105282186
 20
3.195585864773615
  0
LINE
  5
470
330
17
100
AcDbEntity
  8
PAPER
100
AcDbLine
 10
0.6976774071368675
 20
2.366887157427699
 30
0.0
 11
0.6976774071368675
 21
2.927373821123434
 31
0.0
  0
LINE
  5
471
330
17
100
AcDbEntity
  8
PAPER
100
AcDbLine
 10
0.6976774071368675
 20
3.21236603697944
 30
0.0
 11
0.3783783783783785
 21
3.21236603697944
 31
0.0
  0
CIRCLE
  5
472
330
17
100
AcDbEntity
  8
PAPER
100
AcDbCircle
 10
0.6704939227572968
 20
2.882270892951002
 30
0.0
 40
0.0082700277068097
  0
CIRCLE
  5
473
330
17
100
AcDbEntity
  8
PAPER
100
AcDbCircle
 10
0.6704939227572968
 20
3.011283325177252
 30
0.0
 40
0.0082700277068097
  0
LWPOLYLINE
  5
474
330
17
100
AcDbEntity
  8
PAPER
100
AcDbPolyline
 90
        3
 70
     0
 43
0.0
 10
0.6539556439134968
 20
3.041055424921771
 10
0.6919936852542367
 20
3.041055424921771
 10
0.6919936852542366
 20
2.964873821123434
  0
LWPOLYLINE
  5
479
330
17
100
AcDbEntity
  8
PAPER
100
AcDbPolyline
 90
        3
 70
     0
 43
0.0
 10
0.6919936852542366
 20
2.927373821123432
 10
0.6919936852542367
 20
2.854152798747845
 10
0.6539556439134968
 20
2.854152798747845
  0
LINE
  5
47E
330
17
100
AcDbEntity
  8
PAPER
100
AcDbLine
 10
0.5102321661323122
 20
2.343964994520634
 30
0.0
 11
0.5102321661323122
 21
2.841829438820392
 31
0.0
  0
LWPOLYLINE
  5
47F
330
17
100
AcDbEntity
  8
PAPER
100
AcDbPolyline
 90
        3
 70
     0
 43
0.0
 10
4.014382104225659
 20
2.927373821123432
 10
4.014382104225659
 20
2.854152798747845
 10
4.052420145566399
 20
2.854152798747845
  0
LWPOLYLINE
  5
484
330
17
100
AcDbEntity
  8
PAPER
100
AcDbPolyline
 90
        3
 70
     0
 43
0.0
 10
4.052420145566399
 20
3.041055424921771
 10
4.014382104225659
 20
3.041055424921771
 10
4.014382104225659
 20
2.964873821123434
  0
CIRCLE
  5
489
330
17
100
AcDbEntity
  8
PAPER
100
AcDbCircle
 10
4.035881866722599
 20
3.011283325177252
 30
0.0
 40
0.0082700277068097
  0
CIRCLE
  5
48A
330
17
100
AcDbEntity
  8
PAPER
100
AcDbCircle
 10
4.035881866722599
 20
2.882270892951002
 30
0.0
 40
0.0082700277068097
  0
LINE
  5
48B
330
17
100
AcDbEntity
  8
PAPER
100
AcDbLine
 10
4.206964324390224
 20
2.343964994520634
 30
0.0
 11
4.206964324390224
 21
2.841829438820392
 31
0.0
  0
LINE
  5
48C
330
17
100
AcDbEntity
  8
PAPER
100
AcDbLine
 10
4.198531388892446
 20
2.343964994520634
 30
0.0
 11
4.198531388892446
 21
2.841829438820392
 31
0.0
  0
LINE
  5
48D
330
17
100
AcDbEntity
  8
PAPER
100
AcDbLine
 10
4.005094555697851
 20
2.366887157427699
 30
0.0
 11
4.005094555697851
 21
2.927373821123433
 31
0.0
  0
LINE
  5
48E
330
17
100
AcDbEntity
  8
PAPER
100
AcDbLine
 10
4.005094555697851
 20
2.964873821123434
 30
0.0
 11
4.005094555697851
 21
3.21236603697944
 31
0.0
  0
LINE
  5
48F
330
17
100
AcDbEntity
  8
PAPER
100
AcDbLine
 10
4.005094555697851
 20
3.21236603697944
 30
0.0
 11
4.297297297297297
 21
3.21236603697944
 31
0.0
  0
TEXT
  5
490
330
17
100
AcDbEntity
  8
PAPER
100
AcDbText
 10
0.505621173963524
 20
2.186038709467459
 30
0.0
 40
0.07
  1
%%uSPRING PAD - BY OTHERS:
  7
ARIAL2
100
AcDbText
  0
TEXT
  5
491
330
17
100
AcDbEntity
  8
PAPER
100
AcDbText
 10
0.669383574372019
 20
1.929154257853211
 30
0.0
 40
0.07
  1
STEEL - 10"W x 12"H x 1/4"
  7
arial1
100
AcDbText
  0
TEXT
  5
492
330
17
100
AcDbEntity
  8
PAPER
100
AcDbText
 10
0.669383574372019
 20
1.658917221046766
 30
0.0
 40
0.07
  1
WOOD - 2" x 6" LUMBER x 12"
  7
arial1
100
AcDbText
  0
INSERT
  5
493
330
17
100
AcDbEntity
  8
PAPER
100
AcDbBlockReference
  2
RECT
 10
0.5238608230492011
 20
1.917390354906645
 30
0.0
 41
0.09375
 42
0.09375
 43
0.09375
  0
INSERT
  5
494
330
17
100
AcDbEntity
  8
PAPER
100
AcDbBlockReference
  2
RECT
 10
0.5238608230492011
 20
1.647641577158192
 30
0.0
 41
0.09375
 42
0.09375
 43
0.09375
  0
SOLID
  5
495
330
17
100
AcDbEntity
  8
PAPER
100
AcDbTrace
 10
2.265902035783278
 20
2.686577396857627
 30
0.0
 11
2.287685952582682
 21
2.678216451138328
 31
0.0
 12
2.301876831340877
 22
2.747748674396191
 32
0.0
 13
2.301876831340877
 23
2.747748674396191
 33
0.0
  0
LINE
  5
496
330
17
100
AcDbEntity
  8
PAPER
100
AcDbLine
 10
2.27679399418298
 20
2.682396923997978
 30
0.0
 11
2.099569012040493
 21
2.220648409490032
 31
0.0
  0
LINE
  5
497
330
17
100
AcDbEntity
  8
PAPER
100
AcDbLine
 10
2.099569012040493
 20
2.220648409490032
 30
0.0
 11
2.029569012040494
 21
2.220648409490032
 31
0.0
  0
TEXT
  5
498
330
17
100
AcDbEntity
  8
PAPER
100
AcDbText
 10
0.4157572837761638
 20
7.292728752715749
 30
0.0
 40
0.07
  1
%%uHEADROOM REQUIREMENTS:
  7
ARIAL2
 72
     1
 11
1.130177474772071
 21
7.292728752715749
 31
0.0
100
AcDbText
  0
SOLID
  5
499
330
17
100
AcDbEntity
  8
PAPER
100
AcDbTrace
 10
2.644777549342487
 20
2.811100852521609
 30
0.0
 11
2.666731588952758
 21
2.819004306781306
 31
0.0
 12
2.63204420636853
 22
2.880914698482269
 32
0.0
 13
2.63204420636853
 23
2.880914698482269
 33
0.0
  0
LINE
  5
49A
330
17
100
AcDbEntity
  8
PAPER
100
AcDbLine
 10
2.655754569147623
 20
2.815052579651458
 30
0.0
 11
2.75378757135514
 21
2.542738684630577
 31
0.0
  0
LINE
  5
49B
330
17
100
AcDbEntity
  8
PAPER
100
AcDbLine
 10
2.753787571355139
 20
2.542738684630577
 30
0.0
 11
2.823787571355138
 21
2.542738684630577
 31
0.0
  0
SOLID
  5
49C
330
17
100
AcDbEntity
  8
PAPER
100
AcDbTrace
 10
1.006755554481236
 20
3.062248203801504
 30
0.0
 11
0.9853459232240044
 21
3.071525710679638
 31
0.0
 12
0.9682182182182192
 22
3.002658063468876
 32
0.0
 13
0.9682182182182192
 23
3.002658063468876
 33
0.0
  0
LINE
  5
49D
330
17
100
AcDbEntity
  8
PAPER
100
AcDbLine
 10
0.9960507388526204
 20
3.066886957240571
 30
0.0
 11
1.144069745421097
 21
3.408469280090904
 31
0.0
  0
LINE
  5
49E
330
17
100
AcDbEntity
  8
PAPER
100
AcDbLine
 10
1.144069745421097
 20
3.408469280090904
 30
0.0
 11
1.214069745421097
 21
3.408469280090904
 31
0.0
  0
TEXT
  5
49F
330
17
100
AcDbEntity
  8
PAPER
100
AcDbText
 10
1.284069745421097
 20
3.373469280090904
 30
0.0
 40
0.07
  1
1" O.D. SHAFT:
  7
arial1
100
AcDbText
  0
SOLID
  5
4A0
330
17
100
AcDbEntity
  8
PAPER
100
AcDbTrace
 10
3.945013951043304
 20
3.13287889087724
 30
0.0
 11
3.923475489504844
 21
3.123904531902881
 31
0.0
 12
3.961167797197151
 22
3.063776326774676
 32
0.0
 13
3.961167797197151
 23
3.063776326774676
 33
0.0
  0
LINE
  5
4A1
330
17
100
AcDbEntity
  8
PAPER
100
AcDbLine
 10
3.934244720274075
 20
3.128391711390061
 30
0.0
 11
3.825897391656475
 21
3.388425300072299
 31
0.0
  0
LINE
  5
4A2
330
17
100
AcDbEntity
  8
PAPER
100
AcDbLine
 10
3.825897391656475
 20
3.388425300072299
 30
0.0
 11
3.755897391656476
 21
3.388425300072299
 31
0.0
  0
TEXT
  5
4A3
330
17
100
AcDbEntity
  8
PAPER
100
AcDbText
 10
4.534186554285502
 20
3.52419965503975
 30
0.0
 40
0.07
  1
CABLE DRUM:
  7
arial1
100
AcDbText
  0
TEXT
  5
4A4
330
17
100
AcDbEntity
  8
PAPER
100
AcDbText
 10
2.893787571355138
 20
2.509350866237944
 30
0.0
 40
0.07
  1
%%uTORSION SPRINGS:
  7
ARIAL2
100
AcDbText
  0
SOLID
  5
4A5
330
17
100
AcDbEntity
  8
PAPER
100
AcDbTrace
 10
2.319942923558905
 20
3.163349010297572
 30
0.0
 11
2.297127533897099
 21
3.168238022367959
 31
0.0
 12
2.293868192516841
 22
3.097347347347347
 32
0.0
 13
2.293868192516841
 23
3.097347347347347
 33
0.0
  0
LINE
  5
4A6
330
17
100
AcDbEntity
  8
PAPER
100
AcDbLine
 10
2.308535228728002
 20
3.165793516332765
 30
0.0
 11
2.415611557503449
 21
3.665483050618185
 31
0.0
  0
LINE
  5
4A7
330
17
100
AcDbEntity
  8
PAPER
100
AcDbLine
 10
2.415611557503449
 20
3.665483050618185
 30
0.0
 11
2.48561155750345
 21
3.665483050618185
 31
0.0
  0
TEXT
  5
4A8
330
17
100
AcDbEntity
  8
PAPER
100
AcDbText
 10
2.555611557503449
 20
3.630483050618185
 30
0.0
 40
0.07
  1
CENTER SUPPORT BRACKET:
  7
arial1
100
AcDbText
  0
TEXT
  5
4A9
330
17
100
AcDbEntity
  8
PAPER
100
AcDbText
 10
0.505621173963524
 20
2.069372042800793
 30
0.0
 40
0.07
  1
(PADS MUST BE FLUSH WITH JAMBS)
  7
arial1
100
AcDbText
  0
TEXT
  5
4AA
330
17
100
AcDbEntity
  8
PAPER
100
AcDbText
 10
0.2589491799974446
 20
8.030807834861889
 30
0.0
 40
0.125
  1
%%uLOW-HEADROOM FRONT MOUNT TRACK
  7
arialb
 72
     1
 11
2.19892189486784
 21
8.030807834861889
 31
0.0
100
AcDbText
  0
TEXT
  5
4AE
330
17
100
AcDbEntity
  8
PAPER
100
AcDbText
 10
10.43158935889173
 20
3.412980290882162
 30
0.0
 40
0.07
  1
DOOR HEIGHT + 1"
 50
90.0
  7
arial1
 72
     4
 11
10.39656548440332
 21
3.858239499613404
 31
0.0
100
AcDbText
  0
CIRCLE
  5
4AF
330
17
100
AcDbEntity
  8
PAPER
100
AcDbCircle
 10
9.515455110158766
 20
6.412574147069582
 30
0.0
 40
0.0239786838861057
  0
ARC
  5
4B0
330
17
100
AcDbEntity
  8
PAPER
100
AcDbCircle
 10
9.515455110158766
 20
6.412574147069582
 30
0.0
 40
0.103522585801547
100
AcDbArc
 50
123.0235064276949
 51
56.97649357230503
  0
ARC
  5
4B1
330
17
100
AcDbEntity
  8
PAPER
100
AcDbCircle
 10
9.515455110158766
 20
6.412574147069582
 30
0.0
 40
0.1310061931078789
100
AcDbArc
 50
138.5053272541835
 51
41.49467274581596
  0
ARC
  5
4B2
330
17
100
AcDbEntity
  8
PAPER
100
AcDbCircle
 10
9.515455110158766
 20
6.412574147069582
 30
0.0
 40
0.1547500878240814
100
AcDbArc
 50
145.8824381339006
 51
34.11756186609938
  0
LINE
  5
4B3
330
17
100
AcDbEntity
  8
PAPER
100
AcDbLine
 10
6.413426772145534
 20
6.914454289689981
 30
0.0
 11
6.513916016810864
 21
7.0149435343553
 31
0.0
  0
LINE
  5
4B4
330
17
100
AcDbEntity
  8
PAPER
100
AcDbLine
 10
6.446762733551906
 20
6.831070425507443
 30
0.0
 11
6.596449396983707
 21
6.980757088939268
 31
0.0
  0
POINT
  5
4B5
330
17
100
AcDbEntity
  8
PAPER
100
AcDbPoint
 10
6.990462985091519
 20
6.641951130666962
 30
0.0
  0
POINT
  5
4B6
330
17
100
AcDbEntity
  8
PAPER
100
AcDbPoint
 10
7.741637532951131
 20
6.641951130666962
 30
0.0
  0
POINT
  5
4B7
330
17
100
AcDbEntity
  8
PAPER
100
AcDbPoint
 10
8.502102625746557
 20
6.641951130666962
 30
0.0
  0
POINT
  5
4B8
330
17
100
AcDbEntity
  8
PAPER
100
AcDbPoint
 10
9.261208126600157
 20
6.641951130666962
 30
0.0
  0
POINT
  5
4B9
330
17
100
AcDbEntity
  8
PAPER
100
AcDbPoint
 10
7.340104712798123
 20
7.060740408694767
 30
0.0
  0
POINT
  5
4BA
330
17
100
AcDbEntity
  8
PAPER
100
AcDbPoint
 10
8.101023002907489
 20
7.060740408694767
 30
0.0
  0
POINT
  5
4BB
330
17
100
AcDbEntity
  8
PAPER
100
AcDbPoint
 10
8.854010340022869
 20
7.060740408694767
 30
0.0
  0
POINT
  5
4BC
330
17
100
AcDbEntity
  8
PAPER
100
AcDbPoint
 10
9.616741419388011
 20
7.060740408694767
 30
0.0
  0
POINT
  5
4BD
330
17
100
AcDbEntity
  8
PAPER
100
AcDbPoint
 10
9.693455511669663
 20
6.011103992044735
 30
0.0
  0
POINT
  5
4BE
330
17
100
AcDbEntity
  8
PAPER
100
AcDbPoint
 10
9.592177002740156
 20
1.80209206241572
 30
0.0
  0
POINT
  5
4BF
330
17
100
AcDbEntity
  8
PAPER
100
AcDbPoint
 10
9.592177002740152
 20
1.863992097545352
 30
0.0
  0
POINT
  5
4C0
330
17
100
AcDbEntity
  8
PAPER
100
AcDbPoint
 10
9.700502064217014
 20
1.80209206241572
 30
0.0
  0
POINT
  5
4C1
330
17
100
AcDbEntity
  8
PAPER
100
AcDbPoint
 10
9.70050206421701
 20
1.863992097545352
 30
0.0
  0
POINT
  5
4C2
330
17
100
AcDbEntity
  8
PAPER
100
AcDbPoint
 10
9.581860330218551
 20
2.792492624489841
 30
0.0
  0
POINT
  5
4C3
330
17
100
AcDbEntity
  8
PAPER
100
AcDbPoint
 10
9.581860330218548
 20
2.854392659619473
 30
0.0
  0
POINT
  5
4C4
330
17
100
AcDbEntity
  8
PAPER
100
AcDbPoint
 10
9.700502064217014
 20
2.792492624489841
 30
0.0
  0
POINT
  5
4C5
330
17
100
AcDbEntity
  8
PAPER
100
AcDbPoint
 10
9.700502064217014
 20
2.854392659619473
 30
0.0
  0
POINT
  5
4C6
330
17
100
AcDbEntity
  8
PAPER
100
AcDbPoint
 10
9.571543657696944
 20
3.844793221693594
 30
0.0
  0
POINT
  5
4C7
330
17
100
AcDbEntity
  8
PAPER
100
AcDbPoint
 10
9.571543657696944
 20
3.782893186563961
 30
0.0
  0
POINT
  5
4C8
330
17
100
AcDbEntity
  8
PAPER
100
AcDbPoint
 10
9.700502064217014
 20
3.782893186563961
 30
0.0
  0
POINT
  5
4C9
330
17
100
AcDbEntity
  8
PAPER
100
AcDbPoint
 10
9.700502064217014
 20
3.844793221693594
 30
0.0
  0
POINT
  5
4CA
330
17
100
AcDbEntity
  8
PAPER
100
AcDbPoint
 10
9.700502064217014
 20
4.546326953162763
 30
0.0
  0
POINT
  5
4CB
330
17
100
AcDbEntity
  8
PAPER
100
AcDbPoint
 10
9.700502064217014
 20
4.48442691803313
 30
0.0
  0
POINT
  5
4CC
330
17
100
AcDbEntity
  8
PAPER
100
AcDbPoint
 10
9.561226985175339
 20
4.48442691803313
 30
0.0
  0
POINT
  5
4CD
330
17
100
AcDbEntity
  8
PAPER
100
AcDbPoint
 10
9.561226985175339
 20
4.546326953162763
 30
0.0
  0
ARC
  5
4CE
330
17
100
AcDbEntity
  8
PAPER
100
AcDbCircle
 10
8.872674385688418
 20
5.406297752379233
 30
0.0
 40
0.7118504039907739
100
AcDbArc
 50
0.0695602267070556
 51
90.0
  0
POINT
  5
4CF
330
17
100
AcDbEntity
  8
PAPER
100
AcDbPoint
 10
9.701248828146988
 20
5.437626624159109
 30
0.0
  0
POINT
  5
4D0
330
17
100
AcDbEntity
  8
PAPER
100
AcDbPoint
 10
9.701248828146988
 20
5.375726589029476
 30
0.0
  0
POINT
  5
4D1
330
17
100
AcDbEntity
  8
PAPER
100
AcDbPoint
 10
9.55165707658371
 20
5.375726589029476
 30
0.0
  0
POINT
  5
4D2
330
17
100
AcDbEntity
  8
PAPER
100
AcDbPoint
 10
9.55165707658371
 20
5.437626624159109
 30
0.0
  0
POINT
  5
4D3
330
17
100
AcDbEntity
  8
PAPER
100
AcDbPoint
 10
6.870359433990994
 20
6.647600290611798
 30
0.0
  0
POINT
  5
4D4
330
17
100
AcDbEntity
  8
PAPER
100
AcDbPoint
 10
6.871693961770933
 20
6.073799832265198
 30
0.0
  0
LINE
  5
4D5
330
17
100
AcDbEntity
  8
PAPER
100
AcDbLine
 10
6.912609250794479
 20
6.056248121240374
 30
0.0
 11
6.955207347768204
 21
6.056248121240374
 31
0.0
  0
LINE
  5
4D6
330
17
100
AcDbEntity
  8
PAPER
100
AcDbLine
 10
6.912609250794479
 20
6.118148156370007
 30
0.0
 11
6.955207347768204
 21
6.118148156370007
 31
0.0
  0
LINE
  5
4D7
330
17
100
AcDbEntity
  8
PAPER
100
AcDbLine
 10
6.912609250794479
 20
6.025298103675558
 30
0.0
 11
6.912609250794479
 21
6.499372353875433
 31
0.0
  0
LINE
  5
4D8
330
17
100
AcDbEntity
  8
PAPER
100
AcDbLine
 10
6.830075870621636
 20
6.602276633491083
 30
0.0
 11
6.830075870621636
 21
6.591157163489444
 31
0.0
  0
LINE
  5
4D9
330
17
100
AcDbEntity
  8
PAPER
100
AcDbLine
 10
9.726293745521024
 20
7.097476914528143
 30
0.0
 11
9.726293745521024
 21
7.418395398978666
 31
0.0
  0
LINE
  5
4DA
330
17
100
AcDbEntity
  8
PAPER
100
AcDbLine
 10
8.031947963441702
 20
6.025298103675558
 30
0.0
 11
8.872674385688414
 21
6.025298103675558
 31
0.0
  0
LINE
  5
4DB
330
17
100
AcDbEntity
  8
PAPER
100
AcDbLine
 10
8.031947963441702
 20
6.056248121240374
 30
0.0
 11
8.872674385688414
 21
6.056248121240374
 31
0.0
  0
LINE
  5
4DC
330
17
100
AcDbEntity
  8
PAPER
100
AcDbLine
 10
8.031947963441702
 20
6.118148156370007
 30
0.0
 11
9.250632805484292
 21
6.118148156370007
 31
0.0
  0
LINE
  5
4DD
330
17
100
AcDbEntity
  8
PAPER
100
AcDbLine
 10
7.990681273355282
 20
6.261087533254083
 30
0.0
 11
7.990681273355282
 21
5.889687322476287
 31
0.0
  0
LINE
  5
4DE
330
17
100
AcDbEntity
  8
PAPER
100
AcDbLine
 10
8.031947963441702
 20
6.261087533254083
 30
0.0
 11
8.031947963441702
 21
5.889687322476287
 31
0.0
  0
LINE
  5
4DF
330
17
100
AcDbEntity
  8
PAPER
100
AcDbLine
 10
6.830075870621636
 20
6.025298103675558
 30
0.0
 11
6.955356502688183
 21
6.025298103675558
 31
0.0
  0
ARC
  5
4E0
330
17
100
AcDbEntity
  8
PAPER
100
AcDbCircle
 10
8.872674385688418
 20
5.406297752379233
 30
0.0
 40
0.6499503688611418
100
AcDbArc
 50
0.0284204532935864
 51
90.0
  0
ARC
  5
4E1
330
17
100
AcDbEntity
  8
PAPER
100
AcDbCircle
 10
8.872674385688418
 20
5.406297752379233
 30
0.0
 40
0.6190003512963255
100
AcDbArc
 50
0.000000000000007
 51
90.0
  0
LINE
  5
4E2
330
17
100
AcDbEntity
  8
PAPER
100
AcDbLine
 10
10.05642726621239
 20
1.701504505330067
 30
0.0
 11
10.05642726621239
 21
7.418395398978666
 31
0.0
  0
LINE
  5
4E3
330
17
100
AcDbEntity
  8
PAPER
100
AcDbLine
 10
9.726293745521024
 20
1.701504505330067
 30
0.0
 11
9.726293745521024
 21
7.0149435343553
 31
0.0
  0
LINE
  5
4E4
330
17
100
AcDbEntity
  8
PAPER
100
AcDbLine
 10
10.05642726621239
 20
5.983739460250062
 30
0.0
 11
9.726293745521024
 21
5.983739460250062
 31
0.0
  0
LINE
  5
4E5
330
17
100
AcDbEntity
  8
PAPER
100
AcDbLine
 10
9.529930322143668
 20
1.733761577122369
 30
0.0
 11
9.491674736984743
 21
5.406297752379232
 31
0.0
  0
LINE
  5
4E6
330
17
100
AcDbEntity
  8
PAPER
100
AcDbLine
 10
9.560878660699204
 20
1.734083955648983
 30
0.0
 11
9.522623075540279
 21
5.406620130905847
 31
0.0
  0
LINE
  5
4E7
330
17
100
AcDbEntity
  8
PAPER
100
AcDbLine
 10
9.584524265070582
 20
5.407161977698094
 30
0.0
 11
9.491674736984743
 21
5.406297752379232
 31
0.0
  0
LINE
  5
4E8
330
17
100
AcDbEntity
  8
PAPER
100
AcDbLine
 10
9.622775337810272
 20
1.734728712702288
 30
0.0
 11
9.529930322143668
 21
1.733761577122369
 31
0.0
  0
LINE
  5
4E9
330
17
100
AcDbEntity
  8
PAPER
100
AcDbLine
 10
9.659235374130586
 20
1.701504505330067
 30
0.0
 11
9.65923537413059
 21
1.781458717372509
 31
0.0
  0
LINE
  5
4EA
330
17
100
AcDbEntity
  8
PAPER
100
AcDbLine
 10
9.726293745521028
 20
1.701504505330067
 30
0.0
 11
9.659235374130586
 21
1.701504505330067
 31
0.0
  0
LINE
  5
4EB
330
17
100
AcDbEntity
  8
PAPER
100
AcDbLine
 10
9.593272925461272
 20
4.566960298205974
 30
0.0
 11
9.718556241129823
 21
4.566960298205974
 31
0.0
  0
LINE
  5
4EC
330
17
100
AcDbEntity
  8
PAPER
100
AcDbLine
 10
9.594347578848941
 20
4.46379357298992
 30
0.0
 11
9.718556241129823
 21
4.46379357298992
 31
0.0
  0
LINE
  5
4ED
330
17
100
AcDbEntity
  8
PAPER
100
AcDbLine
 10
9.718556241129823
 20
4.566960298205974
 30
0.0
 11
9.718556241129823
 21
4.46379357298992
 31
0.0
  0
LINE
  5
4EE
330
17
100
AcDbEntity
  8
PAPER
100
AcDbLine
 10
9.719303005059797
 20
5.458259969202321
 30
0.0
 11
9.719303005059797
 21
5.355093243986265
 31
0.0
  0
LINE
  5
4EF
330
17
100
AcDbEntity
  8
PAPER
100
AcDbLine
 10
9.585063207276062
 20
5.355093243986265
 30
0.0
 11
9.719303005059797
 21
5.355093243986265
 31
0.0
  0
LINE
  5
4F0
330
17
100
AcDbEntity
  8
PAPER
100
AcDbLine
 10
9.582625740137908
 20
5.458259969202321
 30
0.0
 11
9.719303005059797
 21
5.458259969202321
 31
0.0
  0
LINE
  5
4F1
330
17
100
AcDbEntity
  8
PAPER
100
AcDbLine
 10
9.718556241129823
 20
3.865426566736804
 30
0.0
 11
9.718556241129823
 21
3.76225984152075
 31
0.0
  0
LINE
  5
4F2
330
17
100
AcDbEntity
  8
PAPER
100
AcDbLine
 10
9.601655221885083
 20
3.76225984152075
 30
0.0
 11
9.718556241129823
 21
3.76225984152075
 31
0.0
  0
LINE
  5
4F3
330
17
100
AcDbEntity
  8
PAPER
100
AcDbLine
 10
9.600580568497411
 20
3.865426566736804
 30
0.0
 11
9.718556241129823
 21
3.865426566736804
 31
0.0
  0
LINE
  5
4F4
330
17
100
AcDbEntity
  8
PAPER
100
AcDbLine
 10
9.718556241129823
 20
2.875026004662684
 30
0.0
 11
9.718556241129819
 21
2.77185927944663
 31
0.0
  0
LINE
  5
4F5
330
17
100
AcDbEntity
  8
PAPER
100
AcDbLine
 10
9.611971894406684
 20
2.771859279446629
 30
0.0
 11
9.718556241129819
 21
2.77185927944663
 31
0.0
  0
LINE
  5
4F6
330
17
100
AcDbEntity
  8
PAPER
100
AcDbLine
 10
9.610897241019015
 20
2.875026004662684
 30
0.0
 11
9.718556241129823
 21
2.875026004662684
 31
0.0
  0
LINE
  5
4F7
330
17
100
AcDbEntity
  8
PAPER
100
AcDbLine
 10
9.718556241129823
 20
1.884625442588563
 30
0.0
 11
9.718556241129819
 21
1.781458717372509
 31
0.0
  0
LINE
  5
4F8
330
17
100
AcDbEntity
  8
PAPER
100
AcDbLine
 10
9.622288566928288
 20
1.781458717372509
 30
0.0
 11
9.718556241129819
 21
1.781458717372509
 31
0.0
  0
LINE
  5
4F9
330
17
100
AcDbEntity
  8
PAPER
100
AcDbLine
 10
9.621213913540623
 20
1.884625442588563
 30
0.0
 11
9.718556241129823
 21
1.884625442588563
 31
0.0
  0
LINE
  5
4FA
330
17
100
AcDbEntity
  8
PAPER
100
AcDbLine
 10
9.659235374130586
 20
5.458259969202321
 30
0.0
 11
9.65923537413059
 21
5.96349733057378
 31
0.0
  0
LINE
  5
4FB
330
17
100
AcDbEntity
  8
PAPER
100
AcDbLine
 10
9.65923537413059
 20
4.566960298205974
 30
0.0
 11
9.65923537413059
 21
5.355093243986265
 31
0.0
  0
LINE
  5
4FC
330
17
100
AcDbEntity
  8
PAPER
100
AcDbLine
 10
9.65923537413059
 20
3.865426566736804
 30
0.0
 11
9.65923537413059
 21
4.46379357298992
 31
0.0
  0
LINE
  5
4FD
330
17
100
AcDbEntity
  8
PAPER
100
AcDbLine
 10
9.65923537413059
 20
2.875026004662684
 30
0.0
 11
9.65923537413059
 21
3.76225984152075
 31
0.0
  0
LINE
  5
4FE
330
17
100
AcDbEntity
  8
PAPER
100
AcDbLine
 10
9.659235374130586
 20
1.884625442588563
 30
0.0
 11
9.65923537413059
 21
2.77185927944663
 31
0.0
  0
LINE
  5
4FF
330
17
100
AcDbEntity
  8
PAPER
100
AcDbLine
 10
9.622775337810272
 20
1.734728712702288
 30
0.0
 11
9.584520824966771
 21
5.407161945678278
 31
0.0
  0
LINE
  5
500
330
17
100
AcDbEntity
  8
PAPER
100
AcDbLine
 10
10.05653040364876
 20
6.648768208766877
 30
0.0
 11
9.726396882957386
 21
6.97890172945825
 31
0.0
  0
LINE
  5
501
330
17
100
AcDbEntity
  8
PAPER
100
AcDbLine
 10
10.05653040364876
 20
6.823847947150226
 30
0.0
 11
9.8512518691125
 21
7.029126481686486
 31
0.0
  0
LINE
  5
502
330
17
100
AcDbEntity
  8
PAPER
100
AcDbLine
 10
10.05653040364876
 20
6.998927685533575
 30
0.0
 11
9.726396882957386
 21
7.329061206224949
 31
0.0
  0
LINE
  5
503
330
17
100
AcDbEntity
  8
PAPER
100
AcDbLine
 10
10.05653040364876
 20
7.174007423916999
 30
0.0
 11
9.812142428587064
 21
7.418395398978666
 31
0.0
  0
LINE
  5
504
330
17
100
AcDbEntity
  8
PAPER
100
AcDbLine
 10
10.05653040364876
 20
7.349087162300424
 30
0.0
 11
9.987222166970459
 21
7.418395398978666
 31
0.0
  0
LINE
  5
505
330
17
100
AcDbEntity
  8
PAPER
100
AcDbLine
 10
10.0449715295028
 20
6.485247344529341
 30
0.0
 11
9.726293745521024
 21
6.803925128511191
 31
0.0
  0
LINE
  5
506
330
17
100
AcDbEntity
  8
PAPER
100
AcDbLine
 10
10.05653040364876
 20
6.298608732000028
 30
0.0
 11
9.726293745521024
 21
6.628845390127849
 31
0.0
  0
LINE
  5
507
330
17
100
AcDbEntity
  8
PAPER
100
AcDbLine
 10
10.05653040364876
 20
6.123528993616604
 30
0.0
 11
9.72639688295739
 21
6.453662514307977
 31
0.0
  0
LINE
  5
508
330
17
100
AcDbEntity
  8
PAPER
100
AcDbLine
 10
10.02124019863195
 20
5.983739460250063
 30
0.0
 11
9.726396882957386
 21
6.278582775924628
 31
0.0
  0
LINE
  5
509
330
17
100
AcDbEntity
  8
PAPER
100
AcDbLine
 10
9.846160460248603
 20
5.983739460250063
 30
0.0
 11
9.726396882957386
 21
6.103503037541279
 31
0.0
  0
LINE
  5
50A
330
17
100
AcDbEntity
  8
PAPER
100
AcDbLine
 10
9.454377389444919
 20
6.602276633491083
 30
0.0
 11
6.514218774897305
 21
6.602276633491083
 31
0.0
  0
LINE
  5
50B
330
17
100
AcDbEntity
  8
PAPER
100
AcDbLine
 10
9.454377389444919
 20
6.684810013663926
 30
0.0
 11
6.395261977823301
 21
6.684810013663926
 31
0.0
  0
LINE
  5
50C
330
17
100
AcDbEntity
  8
PAPER
100
AcDbLine
 10
9.24581258512063
 20
6.718996459079957
 30
0.0
 11
9.541759660395916
 21
7.0149435343553
 31
0.0
  0
LINE
  5
50D
330
17
100
AcDbEntity
  8
PAPER
100
AcDbLine
 10
9.328345965293474
 20
6.684810013663926
 30
0.0
 11
9.658479485984846
 21
7.0149435343553
 31
0.0
  0
LINE
  5
50E
330
17
100
AcDbEntity
  8
PAPER
100
AcDbLine
 10
9.163279204947786
 20
6.684810013663926
 30
0.0
 11
8.833145684256409
 21
7.0149435343553
 31
0.0
  0
LINE
  5
50F
330
17
100
AcDbEntity
  8
PAPER
100
AcDbLine
 10
9.279999030536712
 20
6.684810013663926
 30
0.0
 11
8.949865509845336
 21
7.0149435343553
 31
0.0
  0
LINE
  5
510
330
17
100
AcDbEntity
  8
PAPER
100
AcDbLine
 10
8.488851674224362
 20
6.718996459080032
 30
0.0
 11
8.784798749499648
 21
7.0149435343553
 31
0.0
  0
LINE
  5
511
330
17
100
AcDbEntity
  8
PAPER
100
AcDbLine
 10
8.571385054397206
 20
6.684810013663926
 30
0.0
 11
8.867332129672492
 21
6.980757088939268
 31
0.0
  0
LINE
  5
512
330
17
100
AcDbEntity
  8
PAPER
100
AcDbLine
 10
8.406318294051521
 20
6.684810013663926
 30
0.0
 11
8.076184773360147
 21
7.0149435343553
 31
0.0
  0
LINE
  5
513
330
17
100
AcDbEntity
  8
PAPER
100
AcDbLine
 10
8.523038119640444
 20
6.684810013663926
 30
0.0
 11
8.192904598949072
 21
7.0149435343553
 31
0.0
  0
LINE
  5
514
330
17
100
AcDbEntity
  8
PAPER
100
AcDbLine
 10
7.7318907633281
 20
6.718996459080032
 30
0.0
 11
8.027837838603385
 21
7.0149435343553
 31
0.0
  0
LINE
  5
515
330
17
100
AcDbEntity
  8
PAPER
100
AcDbLine
 10
7.814424143500944
 20
6.684810013663926
 30
0.0
 11
8.110371218776229
 21
6.980757088939268
 31
0.0
  0
LINE
  5
516
330
17
100
AcDbEntity
  8
PAPER
100
AcDbLine
 10
7.649357383155257
 20
6.684810013663926
 30
0.0
 11
7.319223862463883
 21
7.0149435343553
 31
0.0
  0
LINE
  5
517
330
17
100
AcDbEntity
  8
PAPER
100
AcDbLine
 10
7.766077208744184
 20
6.684810013663926
 30
0.0
 11
7.43594368805281
 21
7.0149435343553
 31
0.0
  0
LINE
  5
518
330
17
100
AcDbEntity
  8
PAPER
100
AcDbLine
 10
6.974929852431833
 20
6.718996459080032
 30
0.0
 11
7.270876927707123
 21
7.0149435343553
 31
0.0
  0
LINE
  5
519
330
17
100
AcDbEntity
  8
PAPER
100
AcDbLine
 10
7.057463232604677
 20
6.684810013663926
 30
0.0
 11
7.353410307879967
 21
6.980757088939268
 31
0.0
  0
LINE
  5
51A
330
17
100
AcDbEntity
  8
PAPER
100
AcDbLine
 10
6.892396472258989
 20
6.684810013663926
 30
0.0
 11
6.562262951567624
 21
7.0149435343553
 31
0.0
  0
LINE
  5
51B
330
17
100
AcDbEntity
  8
PAPER
100
AcDbLine
 10
7.009116297847925
 20
6.684810013663926
 30
0.0
 11
6.678982777156551
 21
7.0149435343553
 31
0.0
  0
LINE
  5
51C
330
17
100
AcDbEntity
  8
PAPER
100
AcDbLine
 10
6.365413039812113
 20
7.097476914528143
 30
0.0
 11
9.8512518691125
 21
7.097476914528143
 31
0.0
  0
LINE
  5
51D
330
17
100
AcDbEntity
  8
PAPER
100
AcDbLine
 10
6.365413039812113
 20
7.0149435343553
 30
0.0
 11
9.8512518691125
 21
7.0149435343553
 31
0.0
  0
LINE
  5
51E
330
17
100
AcDbEntity
  8
PAPER
100
AcDbLine
 10
9.8512518691125
 20
7.0149435343553
 30
0.0
 11
9.8512518691125
 21
7.097476914528143
 31
0.0
  0
LINE
  5
51F
330
17
100
AcDbEntity
  8
PAPER
100
AcDbLine
 10
9.454377389444919
 20
6.684810013663926
 30
0.0
 11
9.454377389444919
 21
6.602276633491083
 31
0.0
  0
LINE
  5
520
330
17
100
AcDbEntity
  8
PAPER
100
AcDbLine
 10
8.031947963441702
 20
6.210998209064455
 30
0.0
 11
9.726293745521024
 21
6.210998209064456
 31
0.0
  0
LINE
  5
521
330
17
100
AcDbEntity
  8
PAPER
100
AcDbLine
 10
8.031947963441702
 20
6.149098173934823
 30
0.0
 11
9.250632805484292
 21
6.149098173934823
 31
0.0
  0
LINE
  5
522
330
17
100
AcDbEntity
  8
PAPER
100
AcDbLine
 10
8.031947963441702
 20
6.118148156370007
 30
0.0
 11
8.872674385688414
 21
6.118148156370007
 31
0.0
  0
LINE
  5
523
330
17
100
AcDbEntity
  8
PAPER
100
AcDbLine
 10
6.912609250794479
 20
6.210998209064455
 30
0.0
 11
6.955207347768204
 21
6.210998209064455
 31
0.0
  0
LINE
  5
524
330
17
100
AcDbEntity
  8
PAPER
100
AcDbLine
 10
6.912609250794479
 20
6.149098173934823
 30
0.0
 11
6.955207347768204
 21
6.149098173934823
 31
0.0
  0
ARC
  5
525
330
17
100
AcDbEntity
  8
PAPER
100
AcDbCircle
 10
9.250632805484292
 20
5.498518432342244
 30
0.0
 40
0.7118504039907743
100
AcDbArc
 50
50.23048290715878
 51
90.0
  0
ARC
  5
526
330
17
100
AcDbEntity
  8
PAPER
100
AcDbCircle
 10
9.250632805484292
 20
5.498518432342244
 30
0.0
 40
0.6499503688611418
100
AcDbArc
 50
45.20454554480245
 51
90.0
  0
ARC
  5
527
330
17
100
AcDbEntity
  8
PAPER
100
AcDbCircle
 10
9.250632805484292
 20
5.498518432342244
 30
0.0
 40
0.6190003512963255
100
AcDbArc
 50
44.27486715683516
 51
90.0
  0
ARC
  5
528
330
17
100
AcDbEntity
  8
PAPER
100
AcDbCircle
 10
9.59432495190695
 20
5.999324166584055
 30
0.0
 40
0.1209115002856174
100
AcDbArc
 50
325.3873581089422
 51
22.53525245593064
  0
LINE
  5
529
330
17
100
AcDbEntity
  8
PAPER
100
AcDbLine
 10
9.726293745521024
 20
6.095974634987221
 30
0.0
 11
9.65923537413059
 21
6.095974634987221
 31
0.0
  0
LINE
  5
52A
330
17
100
AcDbEntity
  8
PAPER
100
AcDbLine
 10
9.65923537413059
 20
6.081420601284396
 30
0.0
 11
9.65923537413059
 21
6.095974634987221
 31
0.0
  0
LINE
  5
52B
330
17
100
AcDbEntity
  8
PAPER
100
AcDbLine
 10
9.222100896052364
 20
6.026484910837634
 30
0.0
 11
9.5737625510822
 21
6.026484910837634
 31
0.0
  0
LINE
  5
52C
330
17
100
AcDbEntity
  8
PAPER
100
AcDbLine
 10
9.782901436270838
 20
7.097476914528143
 30
0.0
 11
9.726293745521024
 21
7.15408460527796
 31
0.0
  0
LINE
  5
52D
330
17
100
AcDbEntity
  8
PAPER
100
AcDbLine
 10
10.05642726621239
 20
1.701504505330067
 30
0.0
 11
9.726293745521028
 21
1.701504505330067
 31
0.0
  0
LINE
  5
52E
330
17
100
AcDbEntity
  8
PAPER
100
AcDbLine
 10
8.04158549414371
 20
6.602276633491083
 30
0.0
 11
8.04158549414371
 21
6.591157163489443
 31
0.0
  0
LINE
  5
52F
330
17
100
AcDbEntity
  8
PAPER
100
AcDbLine
 10
8.124118874316554
 20
6.210998209064455
 30
0.0
 11
8.124118874316557
 21
6.499372353875433
 31
0.0
  0
POINT
  5
530
330
17
100
AcDbEntity
  8
PAPER
100
AcDbPoint
 10
8.077084849820675
 20
6.073799832265198
 30
0.0
  0
POINT
  5
531
330
17
100
AcDbEntity
  8
PAPER
100
AcDbPoint
 10
6.575262778756409
 20
7.060740408694767
 30
0.0
  0
LWPOLYLINE
  5
532
330
17
100
AcDbEntity
  8
PAPER
  6
HIDDEN
100
AcDbPolyline
 90
        6
 70
     0
 43
0.0
 10
9.726293745521024
 20
6.591157163489443
 10
5.582322244705422
 20
6.591157163489443
 10
5.582322244705422
 20
6.096818193524583
 10
6.417792174155477
 20
6.096818193524583
 10
6.417792174155477
 20
6.499372353875433
 10
9.726293745521024
 20
6.499372353875433
  0
LINE
  5
53A
330
17
100
AcDbEntity
  8
PAPER
100
AcDbLine
 10
6.830075870621636
 20
6.499372353875433
 30
0.0
 11
6.830075870621636
 21
6.025298103675558
 31
0.0
  0
LINE
  5
53B
330
17
100
AcDbEntity
  8
PAPER
100
AcDbLine
 10
6.912609250794479
 20
6.591157163489444
 30
0.0
 11
6.912609250794479
 21
6.602276633491083
 31
0.0
  0
LINE
  5
53C
330
17
100
AcDbEntity
  8
PAPER
100
AcDbLine
 10
8.041585494143713
 20
6.499372353875433
 30
0.0
 11
8.04158549414371
 21
6.210998209064455
 31
0.0
  0
LINE
  5
53D
330
17
100
AcDbEntity
  8
PAPER
100
AcDbLine
 10
8.124118874316554
 20
6.591157163489443
 30
0.0
 11
8.124118874316554
 21
6.602276633491083
 31
0.0
  0
TEXT
  5
53E
330
17
100
AcDbEntity
  8
PAPER
100
AcDbText
 10
7.03049902116999
 20
5.506718373469553
 30
0.0
 40
0.07
  1
2" 
  7
arial1
100
AcDbText
  0
TEXT
  5
53F
330
17
100
AcDbEntity
  8
PAPER
100
AcDbText
 10
7.03049902116999
 20
5.27338504013622
 30
0.0
 40
0.07
  1
3"
  7
arial1
100
AcDbText
  0
INSERT
  5
540
330
17
100
AcDbEntity
  8
PAPER
100
AcDbBlockReference
  2
RECT
 10
6.888812758543444
 20
5.492007719341956
 30
0.0
 41
0.09375
 42
0.09375
 43
0.09375
  0
INSERT
  5
541
330
17
100
AcDbEntity
  8
PAPER
100
AcDbBlockReference
  2
RECT
 10
6.888812758543444
 20
5.259486201653134
 30
0.0
 41
0.09375
 42
0.09375
 43
0.09375
  0
LINE
  5
542
330
17
100
AcDbEntity
  8
PAPER
100
AcDbLine
 10
6.967955491708882
 20
6.210998209064455
 30
0.0
 11
7.134947317000936
 21
6.210998209064455
 31
0.0
  0
LINE
  5
543
330
17
100
AcDbEntity
  8
PAPER
100
AcDbLine
 10
6.967955491708882
 20
6.149098173934823
 30
0.0
 11
7.115185164386006
 21
6.149098173934823
 31
0.0
  0
LINE
  5
544
330
17
100
AcDbEntity
  8
PAPER
100
AcDbLine
 10
6.967955491708882
 20
6.118148156370007
 30
0.0
 11
7.105292754322037
 21
6.118148156370007
 31
0.0
  0
LINE
  5
545
330
17
100
AcDbEntity
  8
PAPER
100
AcDbLine
 10
6.967955491708882
 20
6.056248121240374
 30
0.0
 11
7.085485258654345
 21
6.056248121240374
 31
0.0
  0
LINE
  5
546
330
17
100
AcDbEntity
  8
PAPER
100
AcDbLine
 10
6.968140510852176
 20
6.025298103675558
 30
0.0
 11
7.075570169834763
 21
6.025298103675558
 31
0.0
  0
LINE
  5
547
330
17
100
AcDbEntity
  8
PAPER
100
AcDbLine
 10
7.088956921426885
 20
6.025298103675558
 30
0.0
 11
7.990681273355282
 21
6.025298103675558
 31
0.0
  0
LINE
  5
548
330
17
100
AcDbEntity
  8
PAPER
100
AcDbLine
 10
7.098871060079219
 20
6.056248121240374
 30
0.0
 11
7.990681273355282
 21
6.056248121240374
 31
0.0
  0
LINE
  5
549
330
17
100
AcDbEntity
  8
PAPER
100
AcDbLine
 10
7.118676657990037
 20
6.118148156370007
 30
0.0
 11
7.990681273355282
 21
6.118148156370007
 31
0.0
  0
LINE
  5
54A
330
17
100
AcDbEntity
  8
PAPER
100
AcDbLine
 10
7.128568120463243
 20
6.149098173934823
 30
0.0
 11
7.990681273355282
 21
6.149098173934823
 31
0.0
  0
LINE
  5
54B
330
17
100
AcDbEntity
  8
PAPER
100
AcDbLine
 10
7.148328380469721
 20
6.210998209064455
 30
0.0
 11
7.990681273355282
 21
6.210998209064455
 31
0.0
  0
TEXT
  5
54F
330
17
100
AcDbEntity
  8
PAPER
100
AcDbText
 10
0.3488285582880213
 20
4.439294748295732
 30
0.0
 40
0.07
  1
%%uNOTE:
  7
arial1
100
AcDbText
  0
SOLID
  5
553
330
17
100
AcDbEntity
  8
PAPER
100
AcDbTrace
 10
4.224616123221045
 20
3.111327478153297
 30
0.0
 11
4.203333769144551
 21
3.120893347136678
 31
0.0
 12
4.185277339232658
 22
3.052263350415506
 32
0.0
 13
4.185277339232658
 23
3.052263350415506
 33
0.0
  0
LINE
  5
554
330
17
100
AcDbEntity
  8
PAPER
100
AcDbLine
 10
4.213974946182798
 20
3.116110412644988
 30
0.0
 11
4.411311742066182
 21
3.555149622737436
 31
0.0
  0
LINE
  5
555
330
17
100
AcDbEntity
  8
PAPER
100
AcDbLine
 10
4.411311742066182
 20
3.555149622737436
 30
0.0
 11
4.481311742066182
 21
3.555149622737436
 31
0.0
  0
TEXT
  5
556
330
17
100
AcDbEntity
  8
PAPER
100
AcDbText
 10
2.998557238798953
 20
3.345403771142836
 30
0.0
 40
0.07
  1
END BEARING
  7
arial1
100
AcDbText
  0
TEXT
  5
557
330
17
100
AcDbEntity
  8
PAPER
100
AcDbText
 10
2.998557238798953
 20
3.22873710447617
 30
0.0
 40
0.07
  1
PLATE:
  7
arial1
100
AcDbText
  0
INSERT
  5
55B
330
17
100
AcDbEntity
  8
PAPER
100
AcDbBlockReference
  2
RECT
 10
3.858744664562827
 20
5.646936414993283
 30
0.0
 41
0.09375
 42
0.09375
 43
0.09375
  0
TEXT
  5
55C
330
17
100
AcDbEntity
  8
PAPER
100
AcDbText
 10
4.018410841937694
 20
5.659806454325842
 30
0.0
 40
0.07
  1
BY OTHERS
  7
arial1
100
AcDbText
  0
TEXT
  5
55D
330
17
100
AcDbEntity
  8
PAPER
100
AcDbText
 10
4.018410841937694
 20
4.80845510297449
 30
0.0
 40
0.07
  1
BY OTHERS
  7
arial1
100
AcDbText
  0
INSERT
  5
55E
330
17
100
AcDbEntity
  8
PAPER
100
AcDbBlockReference
  2
RECT
 10
3.858744664562827
 20
4.795585063641931
 30
0.0
 41
0.09375
 42
0.09375
 43
0.09375
  0
INSERT
  5
55F
330
17
100
AcDbEntity
  8
PAPER
100
AcDbBlockReference
  2
RECT
 10
3.858744664562827
 20
5.108000701196257
 30
0.0
 41
0.09375
 42
0.09375
 43
0.09375
  0
INSERT
  5
560
330
17
100
AcDbEntity
  8
PAPER
100
AcDbBlockReference
  2
RECT
 10
3.858744664562827
 20
4.951792882419094
 30
0.0
 41
0.09375
 42
0.09375
 43
0.09375
  0
TEXT
  5
561
330
17
100
AcDbEntity
  8
PAPER
100
AcDbText
 10
4.018410841937694
 20
5.120008598979008
 30
0.0
 40
0.07
  1
YES
  7
arial1
100
AcDbText
  0
TEXT
  5
562
330
17
100
AcDbEntity
  8
PAPER
100
AcDbText
 10
4.018410841937694
 20
4.964662921751653
 30
0.0
 40
0.07
  1
NO
  7
arial1
100
AcDbText
  0
TEXT
  5
563
330
17
100
AcDbEntity
  8
PAPER
100
AcDbText
 10
3.84050501547715
 20
5.395485902222945
 30
0.0
 40
0.07
  1
%%uREINFORCING KIT
  7
ARIAL2
100
AcDbText
  0
TEXT
  5
564
330
17
100
AcDbEntity
  8
PAPER
100
AcDbText
 10
3.84050501547715
 20
5.282152568889611
 30
0.0
 40
0.07
  1
ATTACHES TO DOOR
  7
arial1
100
AcDbText
  0
TEXT
  5
565
330
17
100
AcDbEntity
  8
PAPER
100
AcDbText
 10
0.669383574372019
 20
1.810074715517467
 30
0.0
 40
0.07
  1
FOR USE WITH STEEL JAMBS
  7
arial1
100
AcDbText
  0
TEXT
  5
566
330
17
100
AcDbEntity
  8
PAPER
100
AcDbText
 10
0.669383574372019
 20
1.539837678711022
 30
0.0
 40
0.07
  1
FOR USE WITH WOOD JAMBS
  7
arial1
100
AcDbText
  0
TEXT
  5
568
330
17
100
AcDbEntity
  8
PAPER
100
AcDbText
 10
0.4952665996888678
 20
7.149439955187416
 30
0.0
 40
0.07
  1
2" TRACK: 10"
  7
arial1
100
AcDbText
  0
TEXT
  5
569
330
17
100
AcDbEntity
  8
PAPER
100
AcDbText
 10
0.4952665996888678
 20
7.036106621854083
 30
0.0
 40
0.07
  1
3" TRACK: 13"
  7
arial1
100
AcDbText
  0
TEXT
  5
56A
330
17
100
AcDbEntity
  8
PAPER
100
AcDbText
 10
0.4952665996888678
 20
6.922773288520749
 30
0.0
 40
0.07
  1
4" ADDITIONAL HEADROOM REQUIRED
  7
arial1
100
AcDbText
  0
TEXT
  5
56B
330
17
100
AcDbEntity
  8
PAPER
100
AcDbText
 10
0.4608208739778059
 20
6.809439955187416
 30
0.0
 40
0.07
  1
   FOR TROLLEY OPERATOR
  7
arial1
100
AcDbText
  0
LINE
  5
56C
330
17
100
AcDbEntity
  8
PAPER
100
AcDbLine
 10
0.6976774071368675
 20
2.964873821123434
 30
0.0
 11
0.6976774071368675
 21
3.21236603697944
 31
0.0
  0
LINE
  5
56D
330
17
100
AcDbEntity
  8
PAPER
100
AcDbLine
 10
4.223962548345973
 20
2.964873821123434
 30
0.0
 11
4.340407624328085
 21
2.964873821123434
 31
0.0
  0
LINE
  5
56E
330
17
100
AcDbEntity
  8
PAPER
100
AcDbLine
 10
4.223962548345973
 20
2.927373821123432
 30
0.0
 11
4.340407624328085
 21
2.927373821123432
 31
0.0
  0
LWPOLYLINE
  5
56F
330
17
100
AcDbEntity
  8
PAPER
100
AcDbPolyline
 90
        2
 70
     0
 43
0.0
 10
9.414134833183013
 20
6.295604958156003
 10
9.414134833183013
 20
6.210998209064455
  0
LWPOLYLINE
  5
573
330
17
100
AcDbEntity
  8
PAPER
100
AcDbPolyline
 90
        2
 70
     0
 43
0.0
 10
9.725186109663708
 20
6.288261538188568
 10
9.607617819291865
 20
6.288261538188568
  0
LWPOLYLINE
  5
577
330
17
100
AcDbEntity
  8
PAPER
100
AcDbPolyline
 90
        2
 70
     0
 43
0.0
 10
9.59577061506955
 20
6.280297885584481
 10
9.59577061506955
 20
6.210998209064456
  0
LINE
  5
57C
330
17
100
AcDbEntity
  8
PAPER
  6
ByBlock
100
AcDbLine
 10
9.816362560555139
 20
6.025298103675558
 30
0.0
 11
10.34834915997078
 21
6.025298103675558
 31
0.0
  0
LINE
  5
57D
330
17
100
AcDbEntity
  8
PAPER
  6
ByBlock
100
AcDbLine
 10
10.14642726621239
 20
1.701504505330067
 30
0.0
 11
10.34834915997078
 21
1.701504505330067
 31
0.0
  0
LINE
  5
57E
330
17
100
AcDbEntity
  8
PAPER
  6
ByBlock
100
AcDbLine
 10
10.28834915997078
 20
5.955298103675557
 30
0.0
 11
10.28834915997078
 21
4.521734637836146
 31
0.0
  0
LINE
  5
57F
330
17
100
AcDbEntity
  8
PAPER
  6
ByBlock
100
AcDbLine
 10
10.28834915997078
 20
1.771504505330067
 30
0.0
 11
10.28834915997078
 21
3.20506797116948
 31
0.0
  0
SOLID
  5
580
330
17
100
AcDbEntity
  8
PAPER
  6
ByBlock
100
AcDbTrace
 10
10.30001582663745
 20
5.955298103675557
 30
0.0
 11
10.27668249330411
 21
5.955298103675557
 31
0.0
 12
10.28834915997078
 22
6.025298103675558
 32
0.0
 13
10.28834915997078
 23
6.025298103675558
 33
0.0
  0
SOLID
  5
581
330
17
100
AcDbEntity
  8
PAPER
  6
ByBlock
100
AcDbTrace
 10
10.30001582663745
 20
1.771504505330067
 30
0.0
 11
10.27668249330411
 21
1.771504505330067
 31
0.0
 12
10.28834915997078
 22
1.701504505330067
 32
0.0
 13
10.28834915997078
 23
1.701504505330067
 33
0.0
  0
TEXT
  5
582
330
17
100
AcDbEntity
  8
PAPER
  6
ByBlock
100
AcDbText
 10
10.33443024105186
 20
3.275067971169479
 30
0.0
 40
0.07
  1
OVERHEAD CLEARANCE
 50
90.0
  7
arial1
100
AcDbText
  0
POINT
  5
583
330
17
100
AcDbEntity
  8
DEFPOINTS
  6
ByBlock
 62
     0
100
AcDbPoint
 10
9.72636256055514
 20
6.025298103675558
 30
0.0
  0
POINT
  5
584
330
17
100
AcDbEntity
  8
DEFPOINTS
  6
ByBlock
100
AcDbPoint
 10
10.05642726621239
 20
1.701504505330067
 30
0.0
  0
POINT
  5
585
330
17
100
AcDbEntity
  8
PAPER
  6
ByBlock
100
AcDbPoint
 10
10.28834915997078
 20
1.701504505330067
 30
0.0
  0
INSERT
  5
586
330
17
100
AcDbEntity
  8
PAPER
100
AcDbBlockReference
  2
12393
 10
0.1351298743950676
 20
0.694827027027027
 30
0.0
  0
LINE
  5
5AF
330
17
100
AcDbEntity
  8
PAPER
100
AcDbLine
 10
6.830075870621636
 20
5.935298103675559
 30
0.0
 11
6.830075870621636
 21
4.862644697928383
 31
0.0
  0
LINE
  5
5B0
330
17
100
AcDbEntity
  8
PAPER
100
AcDbLine
 10
6.900075870621636
 20
4.922644697928383
 30
0.0
 11
7.811189533670122
 21
4.922644697928383
 31
0.0
  0
LINE
  5
5B1
330
17
100
AcDbEntity
  8
PAPER
100
AcDbLine
 10
9.65629374552102
 20
4.922644697928383
 30
0.0
 11
8.619103637784069
 21
4.922644697928383
 31
0.0
  0
SOLID
  5
5B2
330
17
100
AcDbEntity
  8
PAPER
100
AcDbTrace
 10
6.900075870621636
 20
4.910978031261716
 30
0.0
 11
6.900075870621636
 21
4.93431136459505
 31
0.0
 12
6.830075870621636
 22
4.922644697928383
 32
0.0
 13
6.830075870621636
 23
4.922644697928383
 33
0.0
  0
SOLID
  5
5B3
330
17
100
AcDbEntity
  8
PAPER
100
AcDbTrace
 10
9.65629374552102
 20
4.910978031261716
 30
0.0
 11
9.65629374552102
 21
4.93431136459505
 31
0.0
 12
9.72629374552102
 22
4.922644697928383
 32
0.0
 13
9.72629374552102
 23
4.922644697928383
 33
0.0
  0
TEXT
  5
5B4
330
17
100
AcDbEntity
  8
PAPER
100
AcDbText
 10
7.890886066467414
 20
4.887644697928383
 30
0.0
 40
0.07
  1
BACK ROOM
  7
arial1
100
AcDbText
  0
LINE
  5
5B5
330
17
100
AcDbEntity
  8
PAPER
100
AcDbLine
 10
5.579824259282955
 20
5.858663496191381
 30
0.0
 11
5.579824259282955
 21
4.25114671574486
 31
0.0
  0
LINE
  5
5B6
330
17
100
AcDbEntity
  8
PAPER
100
AcDbLine
 10
5.579824259282955
 20
4.311146715744859
 30
0.0
 11
6.93937947001127
 21
4.311146715744859
 31
0.0
  0
LINE
  5
5B7
330
17
100
AcDbEntity
  8
PAPER
100
AcDbLine
 10
9.656293745521024
 20
4.311146715744859
 30
0.0
 11
8.226046136677936
 21
4.311146715744859
 31
0.0
  0
SOLID
  5
5B8
330
17
100
AcDbEntity
  8
PAPER
100
AcDbTrace
 10
5.649824259282955
 20
4.299480049078193
 30
0.0
 11
5.649824259282955
 21
4.322813382411526
 31
0.0
 12
5.579824259282955
 22
4.311146715744859
 32
0.0
 13
5.579824259282955
 23
4.311146715744859
 33
0.0
  0
SOLID
  5
5B9
330
17
100
AcDbEntity
  8
PAPER
100
AcDbTrace
 10
9.656293745521024
 20
4.299480049078193
 30
0.0
 11
9.656293745521024
 21
4.322813382411526
 31
0.0
 12
9.726293745521024
 22
4.311146715744859
 32
0.0
 13
9.726293745521024
 23
4.311146715744859
 33
0.0
  0
TEXT
  5
5BA
330
17
100
AcDbEntity
  8
PAPER
100
AcDbText
 10
7.009379470011269
 20
4.28324030580265
 30
0.0
 40
0.07
  1
OPERATOR BACKROOM
  7
arial1
100
AcDbText
  0
TEXT
  5
5F1
330
17
100
AcDbEntity
  8
PAPER
100
AcDbText
 10
5.51540647010974
 20
1.308068936466014
 30
0.0
 40
0.06
  1
TRACK SIZE:
  7
arial1
100
AcDbText
  0
LINE
  5
5F2
330
17
100
AcDbEntity
  8
PAPER
100
AcDbLine
 10
4.194280654796743
 20
1.219764019679742
 30
0.0
 11
6.476212032246341
 21
1.219764019679743
 31
0.0
  0
LINE
  5
5F3
330
17
100
AcDbEntity
  8
PAPER
100
AcDbLine
 10
4.194280654796743
 20
0.9713390402638363
 30
0.0
 11
6.476212032246341
 21
0.9713390402638363
 31
0.0
  0
LINE
  5
5F4
330
17
100
AcDbEntity
  8
PAPER
100
AcDbLine
 10
5.667426227580661
 20
0.7518006863614071
 30
0.0
 11
5.875399720208979
 21
0.7518006863614071
 31
0.0
  0
TEXT
  5
5F5
330
17
100
AcDbEntity
  8
PAPER
100
AcDbText
 10
4.223756660742261
 20
0.76984056326178
 30
0.0
 40
0.06
  1
DOOR SIZE:             '           " W  x                '          " H
  7
arial1
100
AcDbText
  0
TEXT
  5
5F6
330
17
100
AcDbEntity
  8
PAPER
100
AcDbText
 10
4.223756660742261
 20
1.042057127045473
 30
0.0
 40
0.06
  1
OPENING SIZE:              '            " W  x               '           " H
  7
arial1
100
AcDbText
  0
LINE
  5
5F7
330
17
100
AcDbEntity
  8
PAPER
100
AcDbLine
 10
1.823198686172373
 20
0.8742858838112292
 30
0.0
 11
4.194280654796743
 21
0.8742858838112292
 31
0.0
  0
LINE
  5
5F8
330
17
100
AcDbEntity
  8
PAPER
100
AcDbLine
 10
1.823198686172373
 20
1.071990194997727
 30
0.0
 11
4.194280654796743
 21
1.071990194997727
 31
0.0
  0
LINE
  5
5F9
330
17
100
AcDbEntity
  8
PAPER
100
AcDbLine
 10
1.823198686172373
 20
1.272690026050688
 30
0.0
 11
4.194280654796743
 21
1.272690026050688
 31
0.0
  0
LINE
  5
5FA
330
17
100
AcDbEntity
  8
PAPER
100
AcDbLine
 10
1.830779037511767
 20
1.450320840144199
 30
0.0
 11
1.830779037511767
 21
0.7028617743493184
 31
0.0
  0
LINE
  5
5FB
330
17
100
AcDbEntity
  8
PAPER
100
AcDbLine
 10
1.823579037511768
 20
1.450320840144199
 30
0.0
 11
1.823579037511768
 21
0.7028617743493184
 31
0.0
  0
LINE
  5
5FC
330
17
100
AcDbEntity
  8
PAPER
100
AcDbLine
 10
1.816379037511767
 20
1.450320840144199
 30
0.0
 11
1.816379037511767
 21
0.7028617743493184
 31
0.0
  0
LINE
  5
5FD
330
17
100
AcDbEntity
  8
PAPER
100
AcDbLine
 10
5.491388172557653
 20
1.219764019679743
 30
0.0
 11
5.491388172557653
 21
1.447968361236215
 31
0.0
  0
LINE
  5
5FE
330
17
100
AcDbEntity
  8
PAPER
100
AcDbLine
 10
4.194280654796743
 20
0.7026934229884954
 30
0.0
 11
4.194280654796743
 21
1.450857023787563
 31
0.0
  0
TEXT
  5
5FF
330
17
100
AcDbEntity
  8
PAPER
100
AcDbText
 10
1.856528287060573
 20
0.7581379156749558
 30
0.0
 40
0.06
  1
CONT:
  7
arial1
100
AcDbText
  0
TEXT
  5
600
330
17
100
AcDbEntity
  8
PAPER
100
AcDbText
 10
1.856528287060573
 20
0.9431603163426453
 30
0.0
 40
0.06
  1
ARCH:
  7
arial1
100
AcDbText
  0
TEXT
  5
601
330
17
100
AcDbEntity
  8
PAPER
100
AcDbText
 10
1.856528287060573
 20
1.143160316342645
 30
0.0
 40
0.06
  1
JOB:
  7
arial1
100
AcDbText
  0
LINE
  5
602
330
17
100
AcDbEntity
  8
PAPER
100
AcDbLine
 10
5.219705514283588
 20
1.023334966188095
 30
0.0
 11
5.427679006911906
 21
1.023334966188095
 31
0.0
  0
LINE
  5
603
330
17
100
AcDbEntity
  8
PAPER
100
AcDbLine
 10
5.057948353350452
 20
0.7518006863614071
 30
0.0
 11
5.26592184597877
 21
0.7518006863614071
 31
0.0
  0
LINE
  5
604
330
17
100
AcDbEntity
  8
PAPER
100
AcDbLine
 10
4.792204446103157
 20
0.7518006863614071
 30
0.0
 11
5.000177938731475
 21
0.7518006863614071
 31
0.0
  0
LINE
  5
605
330
17
100
AcDbEntity
  8
PAPER
100
AcDbLine
 10
4.953961607036293
 20
1.023334966188095
 30
0.0
 11
5.161935099664611
 21
1.023334966188095
 31
0.0
  0
TEXT
  5
606
330
17
100
AcDbEntity
  8
PAPER
100
AcDbText
 10
1.856528287060573
 20
1.331178236876796
 30
0.0
 40
0.06
  1
CUST:
  7
arial1
100
AcDbText
  0
TEXT
  5
607
330
17
100
AcDbEntity
  8
PAPER
100
AcDbText
 10
4.45371635016141
 20
1.347194192093841
 30
0.0
 40
0.06
  1
LOW-HEADROOM
  7
arial1
100
AcDbText
  0
LINE
  5
608
330
17
100
AcDbEntity
  8
PAPER
100
AcDbLine
 10
9.366486582826297
 20
0.865821854005685
 30
0.0
 11
9.679734902916564
 21
0.865821854005685
 31
0.0
  0
LINE
  5
609
330
17
100
AcDbEntity
  8
PAPER
100
AcDbLine
 10
9.165860937491798
 20
1.076373156413785
 30
0.0
 11
9.676166333712226
 21
1.076373156413785
 31
0.0
  0
LINE
  5
60A
330
17
100
AcDbEntity
  8
PAPER
100
AcDbLine
 10
9.286339367721106
 20
1.294190148242178
 30
0.0
 11
9.682029867771598
 21
1.294190148242178
 31
0.0
  0
LINE
  5
60B
330
17
100
AcDbEntity
  8
PAPER
100
AcDbLine
 10
6.476212032246341
 20
0.7026934229884954
 30
0.0
 11
6.476212032246341
 21
1.450857023787563
 31
0.0
  0
LINE
  5
60C
330
17
100
AcDbEntity
  8
PAPER
100
AcDbLine
 10
8.114877213047323
 20
0.7026934229884955
 30
0.0
 11
8.114877213047323
 21
1.450857023787563
 31
0.0
  0
LINE
  5
60D
330
17
100
AcDbEntity
  8
PAPER
100
AcDbLine
 10
7.556436226335067
 20
1.076501513549057
 30
0.0
 11
8.077706179415516
 21
1.076501513549057
 31
0.0
  0
LINE
  5
60E
330
17
100
AcDbEntity
  8
PAPER
100
AcDbLine
 10
7.095947728822606
 20
0.8662491481533683
 30
0.0
 11
8.076504821666254
 21
0.8662491481533683
 31
0.0
  0
TEXT
  5
60F
330
17
100
AcDbEntity
  8
PAPER
100
AcDbText
 10
6.509897109628866
 20
1.090380301772894
 30
0.0
 40
0.06
  1
OPERATOR BACKROOM:
  7
arial1
100
AcDbText
  0
TEXT
  5
610
330
17
100
AcDbEntity
  8
PAPER
100
AcDbText
 10
6.508695751879605
 20
0.8850358167750263
 30
0.0
 40
0.06
  1
BACK ROOM:
  7
arial1
100
AcDbText
  0
LINE
  5
611
330
17
100
AcDbEntity
  8
PAPER
100
AcDbLine
 10
6.089150254299195
 20
1.023334966188095
 30
0.0
 11
6.297123746927512
 21
1.023334966188095
 31
0.0
  0
LINE
  5
612
330
17
100
AcDbEntity
  8
PAPER
100
AcDbLine
 10
5.927393093366059
 20
0.7518006863614071
 30
0.0
 11
6.135366585994376
 21
0.7518006863614071
 31
0.0
  0
LINE
  5
613
330
17
100
AcDbEntity
  8
PAPER
100
AcDbLine
 10
5.829183388513797
 20
1.023334966188095
 30
0.0
 11
6.037156881142115
 21
1.023334966188095
 31
0.0
  0
TEXT
  5
614
330
17
100
AcDbEntity
  8
PAPER
100
AcDbText
 10
8.146669016671044
 20
1.087451849945185
 30
0.0
 40
0.06
  1
AVAILABLE HEADROOM:
  7
arial1
100
AcDbText
  0
TEXT
  5
615
330
17
100
AcDbEntity
  8
PAPER
100
AcDbText
 10
8.146669016671044
 20
0.876900547537085
 30
0.0
 40
0.06
  1
HEADROOM REQUIREMENT:
  7
arial1
100
AcDbText
  0
LINE
  5
616
330
17
100
AcDbEntity
  8
PAPER
100
AcDbLine
 10
7.489674588168658
 20
1.294190148242178
 30
0.0
 11
8.077706179415516
 21
1.294190148242178
 31
0.0
  0
TEXT
  5
617
330
17
100
AcDbEntity
  8
PAPER
100
AcDbText
 10
6.509897109628866
 20
1.308068936466014
 30
0.0
 40
0.06
  1
OPERATOR MODEL #:
  7
arial1
100
AcDbText
  0
TEXT
  5
618
330
17
100
AcDbEntity
  8
PAPER
100
AcDbText
 10
8.149588515711995
 20
1.308068936466014
 30
0.0
 40
0.06
  1
OVERHEAD CLEARANCE:
  7
arial1
100
AcDbText
  0
LINE
  5
619
330
17
100
AcDbEntity
  8
PAPER
100
AcDbLine
 10
9.720672100203822
 20
0.7026934229884954
 30
0.0
 11
9.720672100203822
 21
1.450857023787563
 31
0.0
  0
TEXT
  5
61A
330
17
100
AcDbEntity
  8
PAPER
100
AcDbText
 10
10.20062739017514
 20
0.5825579356356774
 30
0.0
 40
0.056
  1
REV. MAY, 2011
  7
arial1
 72
     2
 11
10.7919889181424
 21
0.5825579356356774
 31
0.0
100
AcDbText
  0
LINE
  5
61B
330
17
100
AcDbEntity
  8
PAPER
100
AcDbLine
 10
10.01138684236564
 20
1.106448867087496
 30
0.0
 11
10.75376671706441
 21
1.106448867087496
 31
0.0
  0
LINE
  5
61C
330
17
100
AcDbEntity
  8
PAPER
100
AcDbLine
 10
10.04662171562477
 20
0.9445790159228646
 30
0.0
 11
10.75148652302675
 21
0.9445790159228646
 31
0.0
  0
LINE
  5
61D
330
17
100
AcDbEntity
  8
PAPER
100
AcDbLine
 10
9.990759978771821
 20
0.7462314518197239
 30
0.0
 11
10.21649918849977
 21
0.7462314518197239
 31
0.0
  0
TEXT
  5
61E
330
17
100
AcDbEntity
  8
PAPER
100
AcDbText
 10
9.747462189139126
 20
0.7867710145756593
 30
0.0
 40
0.06
  1
PAGE            of
  7
arial1
100
AcDbText
  0
TEXT
  5
61F
330
17
100
AcDbEntity
  8
PAPER
100
AcDbText
 10
9.747462189139126
 20
0.9705484399474745
 30
0.0
 40
0.06
  1
BID #:
  7
arial1
100
AcDbText
  0
TEXT
  5
620
330
17
100
AcDbEntity
  8
PAPER
100
AcDbText
 10
9.747462189139126
 20
1.138366865908692
 30
0.0
 40
0.06
  1
DATE:
  7
arial1
100
AcDbText
  0
LINE
  5
621
330
17
100
AcDbEntity
  8
PAPER
100
AcDbLine
 10
10.38523354728631
 20
0.7462314518197239
 30
0.0
 11
10.61097275701426
 21
0.7462314518197239
 31
0.0
  0
TEXT
  5
62B
330
17
100
AcDbEntity
  8
PAPER
100
AcDbText
 10
0.4038315890142662
 20
4.174851641483707
 30
0.0
 40
0.07
  1
TO COUNTERBALANCE DOOR LOAD.  AN EXACT SPRING LAYOUT
  7
arial1
100
AcDbText
  0
TEXT
  5
62C
330
17
100
AcDbEntity
  8
PAPER
100
AcDbText
 10
0.4038315890142662
 20
3.949953960719723
 30
0.0
 40
0.07
  1
MAY REQUIRE 6" SPRINGS OR DOUBLE SHAFTS.
  7
arial1
100
AcDbText
  0
TEXT
  5
62D
330
17
100
AcDbEntity
  8
PAPER
100
AcDbText
 10
0.4038315890142662
 20
4.062402801101715
 30
0.0
 40
0.07
  1
CAN BE FURNISHED UPON APPROVAL OF BID.  SOME DOORS
  7
arial1
100
AcDbText
  0
TEXT
  5
62E
330
17
100
AcDbEntity
  8
PAPER
100
AcDbText
 10
0.4038315890142662
 20
4.287300481865699
 30
0.0
 40
0.07
  1
SPRING SIZE AND CONFIGURATION INDIVIDUALLY CALCULATED
  7
arial1
100
AcDbText
  0
TEXT
  5
62F
330
17
100
AcDbEntity
  8
PAPER
100
AcDbText
 10
4.49888979058151
 20
1.250885861863754
 30
0.0
 40
0.06
  1
FRONT MOUNT
  7
arial1
100
AcDbText
  0
LINE
  5
638
330
17
100
AcDbEntity
  8
PAPER
100
AcDbLine
 10
10.14642726621239
 20
5.981592077168813
 30
0.0
 11
10.58575552113182
 21
5.981592077168813
 31
0.0
  0
LINE
  5
639
330
17
100
AcDbEntity
  8
PAPER
100
AcDbLine
 10
9.544377389444919
 20
6.602276633491083
 30
0.0
 11
10.58575552113182
 21
6.602276633491083
 31
0.0
  0
LINE
  5
63A
330
17
100
AcDbEntity
  8
PAPER
100
AcDbLine
 10
10.52575552113182
 20
5.981592077168813
 30
0.0
 11
10.52575552113182
 21
6.333512301074942
 31
0.0
  0
LINE
  5
63B
330
17
100
AcDbEntity
  8
PAPER
100
AcDbLine
 10
10.52575552113182
 20
6.532276633491083
 30
0.0
 11
10.52575552113182
 21
6.333512301074942
 31
0.0
  0
SOLID
  5
63C
330
17
100
AcDbEntity
  8
PAPER
100
AcDbTrace
 10
10.53742218779849
 20
6.051592077168813
 30
0.0
 11
10.51408885446516
 21
6.051592077168813
 31
0.0
 12
10.52575552113182
 22
5.981592077168813
 32
0.0
 13
10.52575552113182
 23
5.981592077168813
 33
0.0
  0
SOLID
  5
63D
330
17
100
AcDbEntity
  8
PAPER
100
AcDbTrace
 10
10.53742218779849
 20
6.532276633491083
 30
0.0
 11
10.51408885446516
 21
6.532276633491083
 31
0.0
 12
10.52575552113182
 22
6.602276633491083
 32
0.0
 13
10.52575552113182
 23
6.602276633491083
 33
0.0
  0
TEXT
  5
63E
330
17
100
AcDbEntity
  8
PAPER
100
AcDbText
 10
10.56191077270275
 20
6.636130968600877
 30
0.0
 40
0.07
  1
HEADROOM
 50
90.0
  7
arial1
100
AcDbText
  0
SOLID
  5
6DE
330
17
100
AcDbEntity
  8
PAPER
100
AcDbTrace
 10
4.323122485302358
 20
2.869406239864037
 30
0.0
 11
4.302109356301184
 21
2.859262628375789
 31
0.0
 12
4.282185086337029
 22
2.927373821123432
 32
0.0
 13
4.282185086337029
 23
2.927373821123432
 33
0.0
  0
LINE
  5
6DF
330
17
100
AcDbEntity
  8
PAPER
100
AcDbLine
 10
4.312615920801772
 20
2.864334434119913
 30
0.0
 11
4.500254223902479
 21
2.475629891050165
 31
0.0
  0
LINE
  5
6E0
330
17
100
AcDbEntity
  8
PAPER
100
AcDbLine
 10
4.500254223902479
 20
2.475629891050165
 30
0.0
 11
4.570254223902479
 21
2.475629891050165
 31
0.0
  0
TEXT
  5
6E1
330
17
100
AcDbEntity
  8
PAPER
100
AcDbText
 10
4.596722462874551
 20
2.443189681795559
 30
0.0
 40
0.07
  1
SHAFT CENTERLINE = DH + 6" 
  7
arial1
100
AcDbText
  0
ENDSEC
  0
SECTION
  2
OBJECTS
  0
DICTIONARY
  5
C
330
0
100
AcDbDictionary
281
     1
  3
ACAD_COLOR
350
6B3
  3
ACAD_GROUP
350
D
  3
ACAD_LAYOUT
350
5A4
  3
ACAD_MATERIAL
350
681
  3
ACAD_MLEADERSTYLE
350
6C8
  3
ACAD_MLINESTYLE
350
1A
  3
ACAD_PLOTSETTINGS
350
5A5
  3
ACAD_PLOTSTYLENAME
350
5A2
  3
ACAD_SCALELIST
350
6B6
  3
ACAD_TABLESTYLE
350
6B4
  3
ACAD_VISUALSTYLE
350
69A
  3
ACDB_RECOMPOSE_DATA
350
7BF
  3
ACDBVARIABLEDICTIONARY
350
35
  0
DICTIONARY
  5
6D4
330
2
100
AcDbDictionary
280
     1
281
     1
  3
ACAD_LAYERSTATES
360
6D5
  0
DICTIONARY
  5
6E4
330
E
100
AcDbDictionary
280
     1
281
     1
  3
ADSK_XREC_LAYER_RECONCILED
360
6E5
  0
DICTIONARY
  5
6E6
330
29
100
AcDbDictionary
280
     1
281
     1
  3
ADSK_XREC_LAYER_RECONCILED
360
6E7
  0
DICTIONARY
  5
6B3
102
{ACAD_REACTORS
330
C
102
}
330
C
100
AcDbDictionary
281
     1
  0
DICTIONARY
  5
D
102
{ACAD_REACTORS
330
C
102
}
330
C
100
AcDbDictionary
281
     1
  0
DICTIONARY
  5
5A4
102
{ACAD_REACTORS
330
C
102
}
330
C
100
AcDbDictionary
281
     1
  3
Layout1
350
5A7
  3
Model
350
5A6
  0
DICTIONARY
  5
681
102
{ACAD_REACTORS
330
C
102
}
330
C
100
AcDbDictionary
281
     1
  3
ByBlock
350
68A
  3
ByLayer
350
682
  3
Global
350
692
  0
DICTIONARY
  5
6C8
102
{ACAD_REACTORS
330
C
102
}
330
C
100
AcDbDictionary
281
     1
  3
Standard
350
6C9
  0
DICTIONARY
  5
1A
102
{ACAD_REACTORS
330
C
102
}
330
C
100
AcDbDictionary
281
     1
  3
STANDARD
350
1B
  0
DICTIONARY
  5
5A5
102
{ACAD_REACTORS
330
C
102
}
330
C
100
AcDbDictionary
281
     1
  0
ACDBDICTIONARYWDFLT
  5
5A2
102
{ACAD_REACTORS
330
C
102
}
330
C
100
AcDbDictionary
281
     1
  3
Normal
350
5A3
100
AcDbDictionaryWithDefault
340
5A3
  0
DICTIONARY
  5
6B6
102
{ACAD_REACTORS
330
C
102
}
330
C
100
AcDbDictionary
281
     1
  3
A0
350
6B7
  3
A1
350
6B8
  3
A2
350
6B9
  3
A3
350
6BA
  3
A4
350
6BB
  3
A5
350
6BC
  3
A6
350
6BD
  3
A7
350
6BE
  3
A8
350
6BF
  3
A9
350
6C0
  3
B0
350
6C1
  3
B1
350
6C2
  3
B2
350
6C3
  3
B3
350
6C4
  3
B4
350
6C5
  3
B5
350
6C6
  3
B6
350
6C7
  0
DICTIONARY
  5
6B4
102
{ACAD_REACTORS
330
C
102
}
330
C
100
AcDbDictionary
281
     1
  3
Standard
350
6B5
  0
DICTIONARY
  5
69A
102
{ACAD_REACTORS
330
C
102
}
330
C
100
AcDbDictionary
281
     1
  3
2dWireframe
350
6A0
  3
Basic
350
69F
  3
Brighten
350
6A6
  3
ColorChange
350
6AA
  3
Conceptual
350
6A3
  3
Dim
350
6A5
  3
EdgeColorOff
350
6B2
  3
Facepattern
350
6A9
  3
Flat
350
69B
  3
FlatWithEdges
350
69C
  3
Gouraud
350
69D
  3
GouraudWithEdges
350
69E
  3
Hidden
350
6A2
  3
JitterOff
350
6B0
  3
Linepattern
350
6A8
  3
OverhangOff
350
6B1
  3
Realistic
350
6A4
  3
Shaded
350
6AF
  3
Shaded with edges
350
6AE
  3
Shades of Gray
350
6AB
  3
Sketchy
350
6AC
  3
Thicken
350
6A7
  3
Wireframe
350
6A1
  3
X-Ray
350
6AD
  0
XRECORD
  5
7BF
102
{ACAD_REACTORS
330
C
102
}
330
C
100
AcDbXrecord
280
     1
 90
        1
330
6B5
  0
DICTIONARY
  5
35
102
{ACAD_REACTORS
330
C
102
}
330
C
100
AcDbDictionary
281
     1
  3
CANNOSCALE
350
741
  3
CMLEADERSTYLE
350
73F
  3
CTABLESTYLE
350
73E
  3
DIMADEC
350
36
  3
LAYEREVAL
350
743
  3
LAYERNOTIFY
350
744
  3
LIGHTINGUNITS
350
742
  3
MSLTSCALE
350
740
  3
XCLIPFRAME
350
745
  0
DICTIONARY
  5
6D5
102
{ACAD_REACTORS
330
6D4
102
}
330
6D4
100
AcDbDictionary
281
     1
  0
XRECORD
  5
6E5
102
{ACAD_REACTORS
330
6E4
102
}
330
6E4
100
AcDbXrecord
280
     1
290
     1
  0
XRECORD
  5
6E7
102
{ACAD_REACTORS
330
6E6
102
}
330
6E6
100
AcDbXrecord
280
     1
290
     1
  0
LAYOUT
  5
5A7
102
{ACAD_REACTORS
330
5A4
102
}
330
5A4
100
AcDbPlotSettings
  1

  2
\\CLOPAY\rus_engrec_pq
  4

  6

 40
0.0
 41
0.0
 42
0.0
 43
0.0
 44
0.0
 45
0.0
 46
0.0
 47
0.0
 48
0.0
 49
0.0
140
0.0
141
0.0
142
1.0
143
1.0
 70
   688
 72
     0
 73
     0
 74
     5
  7
monochrome.ctb
 75
    16
147
1.0
 76
     0
 77
     2
 78
   300
148
0.0
149
0.0
100
AcDbLayout
  1
Layout1
 70
     0
 71
     1
 10
0.0
 20
0.0
 11
12.0
 21
9.0
 12
0.0
 22
0.0
 32
0.0
 14
1.000000000000000E+20
 24
1.000000000000000E+20
 34
1.000000000000000E+20
 15
-1.000000000000000E+20
 25
-1.000000000000000E+20
 35
-1.000000000000000E+20
146
0.0
 13
0.0
 23
0.0
 33
0.0
 16
1.0
 26
0.0
 36
0.0
 17
0.0
 27
1.0
 37
0.0
 76
     0
330
14
  0
LAYOUT
  5
5A6
102
{ACAD_XDICTIONARY
360
700
102
}
102
{ACAD_REACTORS
330
5A4
102
}
330
5A4
100
AcDbPlotSettings
  1

  2
none_device
  4
Letter_(8.50_x_11.00_Inches)
  6

 40
6.349999904632568
 41
6.349999904632568
 42
6.350006103515625
 43
6.350006103515625
 44
215.8999938964844
 45
279.3999938964844
 46
0.0
 47
0.0
 48
0.0
 49
0.0
140
0.0
141
0.0
142
1.0
143
1.0
 70
 11952
 72
     0
 73
     1
 74
     0
  7
monochrome.ctb
 75
     0
147
1.0
 76
     0
 77
     2
 78
   300
148
-8.656892598700693
149
13.05672186477803
100
AcDbLayout
  1
Model
 70
     1
 71
     0
 10
0.0
 20
0.0
 11
12.0
 21
9.0
 12
0.0
 22
0.0
 32
0.0
 14
0.0
 24
0.0
 34
0.0
 15
0.0
 25
0.0
 35
0.0
146
0.0
 13
0.0
 23
0.0
 33
0.0
 16
1.0
 26
0.0
 36
0.0
 17
0.0
 27
1.0
 37
0.0
 76
     0
330
17
331
67F
  0
MATERIAL
  5
68A
102
{ACAD_XDICTIONARY
360
68B
102
}
102
{ACAD_REACTORS
330
681
102
}
330
681
100
AcDbMaterial
  1
ByBlock
 72
     0
 43
0.0208333333333333
 43
0.0
 43
0.0
 43
0.0
 43
0.0
 43
0.0208333333333333
 43
0.0
 43
0.0
 43
0.0
 43
0.0
 43
1.0
 43
0.0
 43
0.0
 43
0.0
 43
0.0
 43
1.0
 77
     0
 47
0.0208333333333333
 47
0.0
 47
0.0
 47
0.0
 47
0.0
 47
0.0208333333333333
 47
0.0
 47
0.0
 47
0.0
 47
0.0
 47
1.0
 47
0.0
 47
0.0
 47
0.0
 47
0.0
 47
1.0
171
     0
 49
0.0208333333333333
 49
0.0
 49
0.0
 49
0.0
 49
0.0
 49
0.0208333333333333
 49
0.0
 49
0.0
 49
0.0
 49
0.0
 49
1.0
 49
0.0
 49
0.0
 49
0.0
 49
0.0
 49
1.0
175
     0
142
0.0208333333333333
142
0.0
142
0.0
142
0.0
142
0.0
142
0.0208333333333333
142
0.0
142
0.0
142
0.0
142
0.0
142
1.0
142
0.0
142
0.0
142
0.0
142
0.0
142
1.0
179
     0
144
0.0208333333333333
144
0.0
144
0.0
144
0.0
144
0.0
144
0.0208333333333333
144
0.0
144
0.0
144
0.0
144
0.0
144
1.0
144
0.0
144
0.0
144
0.0
144
0.0
144
1.0
147
0.0208333333333333
147
0.0
147
0.0
147
0.0
147
0.0
147
0.0208333333333333
147
0.0
147
0.0
147
0.0
147
0.0
147
1.0
147
0.0
147
0.0
147
0.0
147
0.0
147
1.0
  0
MATERIAL
  5
682
102
{ACAD_XDICTIONARY
360
683
102
}
102
{ACAD_REACTORS
330
681
102
}
330
681
100
AcDbMaterial
  1
ByLayer
 72
     0
 43
0.0208333333333333
 43
0.0
 43
0.0
 43
0.0
 43
0.0
 43
0.0208333333333333
 43
0.0
 43
0.0
 43
0.0
 43
0.0
 43
1.0
 43
0.0
 43
0.0
 43
0.0
 43
0.0
 43
1.0
 77
     0
 47
0.0208333333333333
 47
0.0
 47
0.0
 47
0.0
 47
0.0
 47
0.0208333333333333
 47
0.0
 47
0.0
 47
0.0
 47
0.0
 47
1.0
 47
0.0
 47
0.0
 47
0.0
 47
0.0
 47
1.0
171
     0
 49
0.0208333333333333
 49
0.0
 49
0.0
 49
0.0
 49
0.0
 49
0.0208333333333333
 49
0.0
 49
0.0
 49
0.0
 49
0.0
 49
1.0
 49
0.0
 49
0.0
 49
0.0
 49
0.0
 49
1.0
175
     0
142
0.0208333333333333
142
0.0
142
0.0
142
0.0
142
0.0
142
0.0208333333333333
142
0.0
142
0.0
142
0.0
142
0.0
142
1.0
142
0.0
142
0.0
142
0.0
142
0.0
142
1.0
179
     0
144
0.0208333333333333
144
0.0
144
0.0
144
0.0
144
0.0
144
0.0208333333333333
144
0.0
144
0.0
144
0.0
144
0.0
144
1.0
144
0.0
144
0.0
144
0.0
144
0.0
144
1.0
147
0.0208333333333333
147
0.0
147
0.0
147
0.0
147
0.0
147
0.0208333333333333
147
0.0
147
0.0
147
0.0
147
0.0
147
1.0
147
0.0
147
0.0
147
0.0
147
0.0
147
1.0
  0
MATERIAL
  5
692
102
{ACAD_XDICTIONARY
360
693
102
}
102
{ACAD_REACTORS
330
681
102
}
330
681
100
AcDbMaterial
  1
Global
 72
     0
 43
0.0208333333333333
 43
0.0
 43
0.0
 43
0.0
 43
0.0
 43
0.0208333333333333
 43
0.0
 43
0.0
 43
0.0
 43
0.0
 43
1.0
 43
0.0
 43
0.0
 43
0.0
 43
0.0
 43
1.0
 77
     0
 47
0.0208333333333333
 47
0.0
 47
0.0
 47
0.0
 47
0.0
 47
0.0208333333333333
 47
0.0
 47
0.0
 47
0.0
 47
0.0
 47
1.0
 47
0.0
 47
0.0
 47
0.0
 47
0.0
 47
1.0
171
     0
 49
0.0208333333333333
 49
0.0
 49
0.0
 49
0.0
 49
0.0
 49
0.0208333333333333
 49
0.0
 49
0.0
 49
0.0
 49
0.0
 49
1.0
 49
0.0
 49
0.0
 49
0.0
 49
0.0
 49
1.0
175
     0
142
0.0208333333333333
142
0.0
142
0.0
142
0.0
142
0.0
142
0.0208333333333333
142
0.0
142
0.0
142
0.0
142
0.0
142
1.0
142
0.0
142
0.0
142
0.0
142
0.0
142
1.0
179
     0
144
0.0208333333333333
144
0.0
144
0.0
144
0.0
144
0.0
144
0.0208333333333333
144
0.0
144
0.0
144
0.0
144
0.0
144
1.0
144
0.0
144
0.0
144
0.0
144
0.0
144
1.0
147
0.0208333333333333
147
0.0
147
0.0
147
0.0
147
0.0
147
0.0208333333333333
147
0.0
147
0.0
147
0.0
147
0.0
147
1.0
147
0.0
147
0.0
147
0.0
147
0.0
147
1.0
  0
MLEADERSTYLE
  5
6C9
102
{ACAD_REACTORS
330
6C8
102
}
330
6C8
100
AcDbMLeaderStyle
170
     2
171
     1
172
     0
 90
        2
 40
0.0
 41
0.0
173
     1
 91
-1056964608
340
11
 92
       -2
290
     1
 42
0.09
291
     1
 43
0.36
  3
Standard
 44
0.18
300

342
F
174
     1
178
     6
175
     1
176
     0
 93
-1056964608
 45
0.18
292
     0
297
     0
 46
0.18
 94
-1056964608
 47
1.0
 49
1.0
140
1.0
293
     1
141
0.0
294
     1
177
     0
142
1.0
295
     0
296
     0
143
0.125
1001
ACAD_MLEADERVER
1070
     2
  0
MLINESTYLE
  5
1B
102
{ACAD_REACTORS
330
1A
102
}
330
1A
100
AcDbMlineStyle
  2
STANDARD
 70
     0
  3

 62
   256
 51
90.0
 52
90.0
 71
     2
 49
0.5
 62
   256
  6
BYLAYER
 49
-0.5
 62
   256
  6
BYLAYER
  0
ACDBPLACEHOLDER
  5
5A3
102
{ACAD_REACTORS
330
5A2
102
}
330
5A2
  0
SCALE
  5
6B7
102
{ACAD_REACTORS
330
6B6
102
}
330
6B6
100
AcDbScale
 70
     0
300
1:1
140
1.0
141
1.0
290
     1
  0
SCALE
  5
6B8
102
{ACAD_REACTORS
330
6B6
102
}
330
6B6
100
AcDbScale
 70
     0
300
1/128" = 1'-0"
140
0.0078125
141
12.0
290
     0
  0
SCALE
  5
6B9
102
{ACAD_REACTORS
330
6B6
102
}
330
6B6
100
AcDbScale
 70
     0
300
1/64" = 1'-0"
140
0.015625
141
12.0
290
     0
  0
SCALE
  5
6BA
102
{ACAD_REACTORS
330
6B6
102
}
330
6B6
100
AcDbScale
 70
     0
300
1/32" = 1'-0"
140
0.03125
141
12.0
290
     0
  0
SCALE
  5
6BB
102
{ACAD_REACTORS
330
6B6
102
}
330
6B6
100
AcDbScale
 70
     0
300
1/16" = 1'-0"
140
0.0625
141
12.0
290
     0
  0
SCALE
  5
6BC
102
{ACAD_REACTORS
330
6B6
102
}
330
6B6
100
AcDbScale
 70
     0
300
3/32" = 1'-0"
140
0.09375
141
12.0
290
     0
  0
SCALE
  5
6BD
102
{ACAD_REACTORS
330
6B6
102
}
330
6B6
100
AcDbScale
 70
     0
300
1/8" = 1'-0"
140
0.125
141
12.0
290
     0
  0
SCALE
  5
6BE
102
{ACAD_REACTORS
330
6B6
102
}
330
6B6
100
AcDbScale
 70
     0
300
3/16" = 1'-0"
140
0.1875
141
12.0
290
     0
  0
SCALE
  5
6BF
102
{ACAD_REACTORS
330
6B6
102
}
330
6B6
100
AcDbScale
 70
     0
300
1/4" = 1'-0"
140
0.25
141
12.0
290
     0
  0
SCALE
  5
6C0
102
{ACAD_REACTORS
330
6B6
102
}
330
6B6
100
AcDbScale
 70
     0
300
3/8" = 1'-0"
140
0.375
141
12.0
290
     0
  0
SCALE
  5
6C1
102
{ACAD_REACTORS
330
6B6
102
}
330
6B6
100
AcDbScale
 70
     0
300
1/2" = 1'-0"
140
0.5
141
12.0
290
     0
  0
SCALE
  5
6C2
102
{ACAD_REACTORS
330
6B6
102
}
330
6B6
100
AcDbScale
 70
     0
300
3/4" = 1'-0"
140
0.75
141
12.0
290
     0
  0
SCALE
  5
6C3
102
{ACAD_REACTORS
330
6B6
102
}
330
6B6
100
AcDbScale
 70
     0
300
1" = 1'-0"
140
1.0
141
12.0
290
     0
  0
SCALE
  5
6C4
102
{ACAD_REACTORS
330
6B6
102
}
330
6B6
100
AcDbScale
 70
     0
300
1-1/2" = 1'-0"
140
1.5
141
12.0
290
     0
  0
SCALE
  5
6C5
102
{ACAD_REACTORS
330
6B6
102
}
330
6B6
100
AcDbScale
 70
     0
300
3" = 1'-0"
140
3.0
141
12.0
290
     0
  0
SCALE
  5
6C6
102
{ACAD_REACTORS
330
6B6
102
}
330
6B6
100
AcDbScale
 70
     0
300
6" = 1'-0"
140
6.0
141
12.0
290
     0
  0
SCALE
  5
6C7
102
{ACAD_REACTORS
330
6B6
102
}
330
6B6
100
AcDbScale
 70
     0
300
1'-0" = 1'-0"
140
12.0
141
12.0
290
     0
  0
TABLESTYLE
  5
6B5
102
{ACAD_XDICTIONARY
360
7BD
102
}
102
{ACAD_REACTORS
330
6B4
102
}
330
6B4
100
AcDbTableStyle
  3
Standard
 70
     0
 71
     0
 40
0.06
 41
0.06
280
     0
281
     0
  7
STANDARD
140
0.18
170
     2
 62
     0
 63
     7
283
     0
 90
      512
 91
        0
  1

274
    -2
284
     1
 64
     0
275
    -2
285
     1
 65
     0
276
    -2
286
     1
 66
     0
277
    -2
287
     1
 67
     0
278
    -2
288
     1
 68
     0
279
    -2
289
     1
 69
     0
  7
STANDARD
140
0.25
170
     5
 62
     0
 63
     7
283
     0
 90
      512
 91
        0
  1

274
    -2
284
     1
 64
     0
275
    -2
285
     1
 65
     0
276
    -2
286
     1
 66
     0
277
    -2
287
     1
 67
     0
278
    -2
288
     1
 68
     0
279
    -2
289
     1
 69
     0
  7
STANDARD
140
0.18
170
     5
 62
     0
 63
     7
283
     0
 90
      512
 91
        0
  1

274
    -2
284
     1
 64
     0
275
    -2
285
     1
 65
     0
276
    -2
286
     1
 66
     0
277
    -2
287
     1
 67
     0
278
    -2
288
     1
 68
     0
279
    -2
289
     1
 69
     0
  0
VISUALSTYLE
  5
6A0
102
{ACAD_XDICTIONARY
360
7CA
102
}
102
{ACAD_REACTORS
330
69A
102
}
330
69A
100
AcDbVisualStyle
  2
2dWireframe
 70
     4
 71
     0
 72
     2
 73
     0
 90
        0
 40
-0.6
 41
-30.0
 62
     5
 63
     7
421
 16777215
 74
     1
 91
        4
 64
     7
 65
   257
 75
     1
175
     1
 42
1.0
 92
        0
 66
   257
 43
1.0
 76
     1
 77
     6
 78
     2
 67
     7
 79
     5
170
     0
171
     0
290
     0
174
     0
 93
        1
 44
0.0
173
     0
291
     0
 45
0.0
1001
ACAD
1000
AcDbSavedByObjectVersion
1070
     0
  0
VISUALSTYLE
  5
69F
102
{ACAD_XDICTIONARY
360
7C8
102
}
102
{ACAD_REACTORS
330
69A
102
}
330
69A
100
AcDbVisualStyle
  2
Basic
 70
     7
 71
     1
 72
     0
 73
     1
 90
        0
 40
-0.6
 41
-30.0
 62
     5
 63
     7
421
 16777215
 74
     0
 91
        4
 64
     7
 65
   257
 75
     1
175
     1
 42
1.0
 92
        8
 66
     7
 43
1.0
 76
     1
 77
     6
 78
     2
 67
     7
 79
     5
170
     0
171
     0
290
     0
174
     0
 93
        1
 44
0.0
173
     0
291
     1
 45
0.0
1001
ACAD
1000
AcDbSavedByObjectVersion
1070
     0
  0
VISUALSTYLE
  5
6A6
102
{ACAD_XDICTIONARY
360
7D6
102
}
102
{ACAD_REACTORS
330
69A
102
}
330
69A
100
AcDbVisualStyle
  2
Brighten
 70
    12
 71
     2
 72
     2
 73
     0
 90
        0
 40
-0.6
 41
-30.0
 62
     5
 63
     7
421
 16777215
 74
     1
 91
        4
 64
     7
 65
   257
 75
     1
175
     1
 42
1.0
 92
        8
 66
     7
 43
1.0
 76
     1
 77
     6
 78
     2
 67
     7
 79
     5
170
     0
171
     0
290
     0
174
     0
 93
        1
 44
50.0
173
     0
291
     1
 45
0.0
1001
ACAD
1000
AcDbSavedByObjectVersion
1070
     0
  0
VISUALSTYLE
  5
6AA
102
{ACAD_XDICTIONARY
360
7DE
102
}
102
{ACAD_REACTORS
330
69A
102
}
330
69A
100
AcDbVisualStyle
  2
ColorChange
 70
    16
 71
     2
 72
     2
 73
     3
 90
        0
 40
-0.6
 41
-30.0
 62
     5
 63
     8
421
  8421504
 74
     1
 91
        4
 64
     7
 65
   257
 75
     1
175
     1
 42
1.0
 92
        8
 66
     8
424
  8421504
 43
1.0
 76
     1
 77
     6
 78
     2
 67
     7
 79
     5
170
     0
171
     0
290
     0
174
     0
 93
        1
 44
0.0
173
     0
291
     1
 45
0.0
1001
ACAD
1000
AcDbSavedByObjectVersion
1070
     0
  0
VISUALSTYLE
  5
6A3
102
{ACAD_XDICTIONARY
360
7D0
102
}
102
{ACAD_REACTORS
330
69A
102
}
330
69A
100
AcDbVisualStyle
  2
Conceptual
 70
     9
 71
     3
 72
     2
 73
     0
 90
        0
 40
-0.6
 41
-30.0
 62
     5
 63
     7
421
 16777215
 74
     2
 91
        2
 64
     7
 65
   257
 75
     1
175
     1
 42
179.0
 92
        8
 66
     7
 43
1.0
 76
     1
 77
     6
 78
     2
 67
     7
 79
     3
170
     0
171
     0
290
     0
174
     0
 93
        1
 44
0.0
173
     0
291
     0
 45
0.0
1001
ACAD
1000
AcDbSavedByObjectVersion
1070
     0
  0
VISUALSTYLE
  5
6A5
102
{ACAD_XDICTIONARY
360
7D4
102
}
102
{ACAD_REACTORS
330
69A
102
}
330
69A
100
AcDbVisualStyle
  2
Dim
 70
    11
 71
     2
 72
     2
 73
     0
 90
        0
 40
-0.6
 41
-30.0
 62
     5
 63
     7
421
 16777215
 74
     1
 91
        4
 64
     7
 65
   257
 75
     1
175
     1
 42
1.0
 92
        8
 66
     7
 43
1.0
 76
     1
 77
     6
 78
     2
 67
     7
 79
     5
170
     0
171
     0
290
     0
174
     0
 93
        1
 44
-50.0
173
     0
291
     1
 45
0.0
1001
ACAD
1000
AcDbSavedByObjectVersion
1070
     0
  0
VISUALSTYLE
  5
6B2
102
{ACAD_XDICTIONARY
360
7EE
102
}
102
{ACAD_REACTORS
330
69A
102
}
330
69A
100
AcDbVisualStyle
  2
EdgeColorOff
 70
    22
 71
     2
 72
     2
 73
     0
 90
        0
 40
-0.6
 41
-30.0
 62
     5
 63
     7
421
 16777215
 74
     1
 91
        4
 64
     7
 65
   257
 75
     1
175
     1
 42
1.0
 92
        8
 66
     7
 43
1.0
 76
     1
 77
     6
 78
     2
 67
     7
 79
     5
170
     0
171
     0
290
     0
174
     0
 93
        1
 44
0.0
173
     0
291
     1
 45
0.0
1001
ACAD
1000
AcDbSavedByObjectVersion
1070
     0
  0
VISUALSTYLE
  5
6A9
102
{ACAD_XDICTIONARY
360
7DC
102
}
102
{ACAD_REACTORS
330
69A
102
}
330
69A
100
AcDbVisualStyle
  2
Facepattern
 70
    15
 71
     2
 72
     2
 73
     0
 90
        0
 40
-0.6
 41
-30.0
 62
     5
 63
     7
421
 16777215
 74
     1
 91
        4
 64
     7
 65
   257
 75
     1
175
     1
 42
1.0
 92
        8
 66
     7
 43
1.0
 76
     1
 77
     6
 78
     2
 67
     7
 79
     5
170
     0
171
     0
290
     0
174
     0
 93
        1
 44
0.0
173
     0
291
     1
 45
0.0
1001
ACAD
1000
AcDbSavedByObjectVersion
1070
     0
  0
VISUALSTYLE
  5
69B
102
{ACAD_XDICTIONARY
360
7C0
102
}
102
{ACAD_REACTORS
330
69A
102
}
330
69A
100
AcDbVisualStyle
  2
Flat
 70
     0
 71
     2
 72
     1
 73
     1
 90
        2
 40
-0.6
 41
30.0
 62
     5
 63
     7
421
 16777215
 74
     0
 91
        0
 64
     7
 65
   257
 75
     1
175
     1
 42
1.0
 92
        8
 66
     7
 43
1.0
 76
     1
 77
     6
 78
     2
 67
     7
 79
     5
170
     0
171
     0
290
     0
174
     0
 93
       13
 44
0.0
173
     0
291
     1
 45
0.0
1001
ACAD
1000
AcDbSavedByObjectVersion
1070
     0
  0
VISUALSTYLE
  5
69C
102
{ACAD_XDICTIONARY
360
7C2
102
}
102
{ACAD_REACTORS
330
69A
102
}
330
69A
100
AcDbVisualStyle
  2
FlatWithEdges
 70
     1
 71
     2
 72
     1
 73
     1
 90
        2
 40
-0.6
 41
30.0
 62
     5
 63
     7
421
 16777215
 74
     1
 91
        0
 64
     7
 65
   257
 75
     1
175
     1
 42
1.0
 92
        0
 66
   257
 43
1.0
 76
     1
 77
     6
 78
     2
 67
     7
 79
     5
170
     0
171
     0
290
     0
174
     0
 93
       13
 44
0.0
173
     0
291
     1
 45
0.0
1001
ACAD
1000
AcDbSavedByObjectVersion
1070
     0
  0
VISUALSTYLE
  5
69D
102
{ACAD_XDICTIONARY
360
7C4
102
}
102
{ACAD_REACTORS
330
69A
102
}
330
69A
100
AcDbVisualStyle
  2
Gouraud
 70
     2
 71
     2
 72
     2
 73
     1
 90
        2
 40
-0.6
 41
30.0
 62
     5
 63
     7
421
 16777215
 74
     0
 91
        0
 64
     7
 65
   257
 75
     1
175
     1
 42
1.0
 92
        0
 66
     7
 43
1.0
 76
     1
 77
     6
 78
     2
 67
     7
 79
     5
170
     0
171
     0
290
     0
174
     0
 93
       13
 44
0.0
173
     0
291
     1
 45
0.0
1001
ACAD
1000
AcDbSavedByObjectVersion
1070
     0
  0
VISUALSTYLE
  5
69E
102
{ACAD_XDICTIONARY
360
7C6
102
}
102
{ACAD_REACTORS
330
69A
102
}
330
69A
100
AcDbVisualStyle
  2
GouraudWithEdges
 70
     3
 71
     2
 72
     2
 73
     1
 90
        2
 40
-0.6
 41
30.0
 62
     5
 63
     7
421
 16777215
 74
     1
 91
        0
 64
     7
 65
   257
 75
     1
175
     1
 42
1.0
 92
        0
 66
   257
 43
1.0
 76
     1
 77
     6
 78
     2
 67
     7
 79
     5
170
     0
171
     0
290
     0
174
     0
 93
       13
 44
0.0
173
     0
291
     1
 45
0.0
1001
ACAD
1000
AcDbSavedByObjectVersion
1070
     0
  0
VISUALSTYLE
  5
6A2
102
{ACAD_XDICTIONARY
360
7CE
102
}
102
{ACAD_REACTORS
330
69A
102
}
330
69A
100
AcDbVisualStyle
  2
Hidden
 70
     6
 71
     1
 72
     2
 73
     2
 90
        0
 40
-0.6
 41
-30.0
 62
     5
 63
     7
421
 16777215
 74
     2
 91
        2
 64
     7
 65
   257
 75
     2
175
     1
 42
40.0
 92
        0
 66
   257
 43
1.0
 76
     1
 77
     6
 78
     2
 67
     7
 79
     3
170
     0
171
     0
290
     0
174
     0
 93
        1
 44
0.0
173
     0
291
     0
 45
0.0
1001
ACAD
1000
AcDbSavedByObjectVersion
1070
     0
  0
VISUALSTYLE
  5
6B0
102
{ACAD_XDICTIONARY
360
7EA
102
}
102
{ACAD_REACTORS
330
69A
102
}
330
69A
100
AcDbVisualStyle
  2
JitterOff
 70
    20
 71
     2
 72
     2
 73
     0
 90
        0
 40
-0.6
 41
-30.0
 62
     5
 63
     7
421
 16777215
 74
     1
 91
        4
 64
     7
 65
   257
 75
     1
175
     1
 42
1.0
 92
       10
 66
     7
 43
1.0
 76
     1
 77
     6
 78
     2
 67
     7
 79
     5
170
     0
171
     0
290
     0
174
     0
 93
        1
 44
0.0
173
     0
291
     1
 45
0.0
1001
ACAD
1000
AcDbSavedByObjectVersion
1070
     0
  0
VISUALSTYLE
  5
6A8
102
{ACAD_XDICTIONARY
360
7DA
102
}
102
{ACAD_REACTORS
330
69A
102
}
330
69A
100
AcDbVisualStyle
  2
Linepattern
 70
    14
 71
     2
 72
     2
 73
     0
 90
        0
 40
-0.6
 41
-30.0
 62
     5
 63
     7
421
 16777215
 74
     1
 91
        4
 64
     7
 65
   257
 75
     7
175
     7
 42
1.0
 92
        8
 66
     7
 43
1.0
 76
     1
 77
     6
 78
     2
 67
     7
 79
     5
170
     0
171
     0
290
     0
174
     0
 93
        1
 44
0.0
173
     0
291
     1
 45
0.0
1001
ACAD
1000
AcDbSavedByObjectVersion
1070
     0
  0
VISUALSTYLE
  5
6B1
102
{ACAD_XDICTIONARY
360
7EC
102
}
102
{ACAD_REACTORS
330
69A
102
}
330
69A
100
AcDbVisualStyle
  2
OverhangOff
 70
    21
 71
     2
 72
     2
 73
     0
 90
        0
 40
-0.6
 41
-30.0
 62
     5
 63
     7
421
 16777215
 74
     1
 91
        4
 64
     7
 65
   257
 75
     1
175
     1
 42
1.0
 92
        9
 66
     7
 43
1.0
 76
     1
 77
     6
 78
     2
 67
     7
 79
     5
170
     0
171
     0
290
     0
174
     0
 93
        1
 44
0.0
173
     0
291
     1
 45
0.0
1001
ACAD
1000
AcDbSavedByObjectVersion
1070
     0
  0
VISUALSTYLE
  5
6A4
102
{ACAD_XDICTIONARY
360
7D2
102
}
102
{ACAD_REACTORS
330
69A
102
}
330
69A
100
AcDbVisualStyle
  2
Realistic
 70
     8
 71
     2
 72
     3
 73
     0
 90
        2
 40
-0.6
 41
30.0
 62
     5
 63
     7
421
 16777215
 74
     0
 91
        0
 64
     7
 65
   257
 75
     1
175
     1
 42
1.0
 92
        8
 66
   257
 43
1.0
 76
     1
 77
     6
 78
     2
 67
     7
 79
     3
170
     0
171
     0
290
     0
174
     0
 93
       13
 44
0.0
173
     0
291
     0
 45
0.0
1001
ACAD
1000
AcDbSavedByObjectVersion
1070
     0
  0
VISUALSTYLE
  5
6AF
102
{ACAD_XDICTIONARY
360
7E8
102
}
102
{ACAD_REACTORS
330
69A
102
}
330
69A
100
AcDbVisualStyle
  2
Shaded
 70
    27
 71
     2
 72
     2
 73
     1
 90
        2
 40
-0.6
 41
30.0
 62
     5
 63
     7
421
 16777215
 74
     0
 91
        4
 64
     7
 65
   257
 75
     1
175
     1
 42
1.0
 92
        8
 66
   257
 43
1.0
 76
     1
 77
     6
 78
     2
 67
     8
425
  7895160
 79
     3
170
     0
171
     0
290
     0
174
     0
 93
        5
 44
0.0
173
     0
291
     0
 45
0.0
1001
ACAD
1000
AcDbSavedByObjectVersion
1070
     0
  0
VISUALSTYLE
  5
6AE
102
{ACAD_XDICTIONARY
360
7E6
102
}
102
{ACAD_REACTORS
330
69A
102
}
330
69A
100
AcDbVisualStyle
  2
Shaded with edges
 70
    26
 71
     2
 72
     2
 73
     1
 90
        2
 40
-0.6
 41
30.0
 62
     5
 63
     7
421
 16777215
 74
     1
 91
       10
 64
     7
 65
   257
 75
     2
175
     1
 42
1.0
 92
        8
 66
   257
 43
1.0
 76
     1
 77
     6
 78
     2
 67
     7
 79
     3
170
     0
171
     0
290
     0
174
     0
 93
        5
 44
0.0
173
     0
291
     0
 45
0.0
1001
ACAD
1000
AcDbSavedByObjectVersion
1070
     0
  0
VISUALSTYLE
  5
6AB
102
{ACAD_XDICTIONARY
360
7E0
102
}
102
{ACAD_REACTORS
330
69A
102
}
330
69A
100
AcDbVisualStyle
  2
Shades of Gray
 70
    23
 71
     2
 72
     2
 73
     3
 90
        0
 40
-0.6
 41
-30.0
 62
     5
 63
     7
421
 16777215
 74
     2
 91
        2
 64
     7
 65
     7
 75
     1
175
     1
 42
40.0
 92
        8
 66
     7
 43
1.0
 76
     1
 77
     6
 78
     2
 67
     7
 79
     3
170
     0
171
     0
290
     0
174
     0
 93
        1
 44
0.0
173
     0
291
     0
 45
0.0
1001
ACAD
1000
AcDbSavedByObjectVersion
1070
     0
  0
VISUALSTYLE
  5
6AC
102
{ACAD_XDICTIONARY
360
7E2
102
}
102
{ACAD_REACTORS
330
69A
102
}
330
69A
100
AcDbVisualStyle
  2
Sketchy
 70
    24
 71
     1
 72
     2
 73
     2
 90
        0
 40
-0.6
 41
-30.0
 62
     5
 63
     7
421
 16777215
 74
     2
 91
        2
 64
     7
 65
     7
 75
     1
175
     1
 42
40.0
 92
       11
 66
     7
 43
1.0
 76
     1
 77
     6
 78
     2
 67
     7
 79
     6
170
     0
171
     0
290
     0
174
     0
 93
        1
 44
0.0
173
     0
291
     0
 45
0.0
1001
ACAD
1000
AcDbSavedByObjectVersion
1070
     0
  0
VISUALSTYLE
  5
6A7
102
{ACAD_XDICTIONARY
360
7D8
102
}
102
{ACAD_REACTORS
330
69A
102
}
330
69A
100
AcDbVisualStyle
  2
Thicken
 70
    13
 71
     2
 72
     2
 73
     0
 90
        0
 40
-0.6
 41
-30.0
 62
     5
 63
     7
421
 16777215
 74
     1
 91
        4
 64
     7
 65
   257
 75
     1
175
     1
 42
1.0
 92
       12
 66
     7
 43
1.0
 76
     1
 77
     6
 78
     2
 67
     7
 79
     5
170
     0
171
     0
290
     0
174
     0
 93
        1
 44
0.0
173
     0
291
     1
 45
0.0
1001
ACAD
1000
AcDbSavedByObjectVersion
1070
     0
  0
VISUALSTYLE
  5
6A1
102
{ACAD_XDICTIONARY
360
7CC
102
}
102
{ACAD_REACTORS
330
69A
102
}
330
69A
100
AcDbVisualStyle
  2
Wireframe
 70
     5
 71
     0
 72
     2
 73
     0
 90
        0
 40
-0.6
 41
-30.0
 62
     5
 63
     7
421
 16777215
 74
     1
 91
        4
 64
     7
 65
   257
 75
     1
175
     1
 42
1.0
 92
        0
 66
   257
 43
1.0
 76
     1
 77
     6
 78
     2
 67
     7
 79
     3
170
     0
171
     0
290
     0
174
     0
 93
        1
 44
0.0
173
     0
291
     0
 45
0.0
1001
ACAD
1000
AcDbSavedByObjectVersion
1070
     0
  0
VISUALSTYLE
  5
6AD
102
{ACAD_XDICTIONARY
360
7E4
102
}
102
{ACAD_REACTORS
330
69A
102
}
330
69A
100
AcDbVisualStyle
  2
X-Ray
 70
    25
 71
     2
 72
     2
 73
     1
 90
        1
 40
0.5
 41
-30.0
 62
     5
 63
     7
421
 16777215
 74
     1
 91
        0
 64
     7
 65
   257
 75
     1
175
     1
 42
1.0
 92
        8
 66
     7
 43
1.0
 76
     1
 77
     6
 78
     2
 67
     7
 79
     3
170
     0
171
     0
290
     0
174
     0
 93
       13
 44
0.0
173
     0
291
     0
 45
0.0
1001
ACAD
1000
AcDbSavedByObjectVersion
1070
     0
  0
DICTIONARYVAR
  5
741
102
{ACAD_REACTORS
330
35
102
}
330
35
100
DictionaryVariables
280
     0
  1
1:1
  0
DICTIONARYVAR
  5
73F
102
{ACAD_REACTORS
330
35
102
}
330
35
100
DictionaryVariables
280
     0
  1
STANDARD
  0
DICTIONARYVAR
  5
73E
102
{ACAD_REACTORS
330
35
102
}
330
35
100
DictionaryVariables
280
     0
  1
STANDARD
  0
DICTIONARYVAR
  5
36
102
{ACAD_REACTORS
330
35
102
}
330
35
100
DictionaryVariables
280
     0
  1
0
  0
DICTIONARYVAR
  5
743
102
{ACAD_REACTORS
330
35
102
}
330
35
100
DictionaryVariables
280
     0
  1
1
  0
DICTIONARYVAR
  5
744
102
{ACAD_REACTORS
330
35
102
}
330
35
100
DictionaryVariables
280
     0
  1
15
  0
DICTIONARYVAR
  5
742
102
{ACAD_REACTORS
330
35
102
}
330
35
100
DictionaryVariables
280
     0
  1
0
  0
DICTIONARYVAR
  5
740
102
{ACAD_REACTORS
330
35
102
}
330
35
100
DictionaryVariables
280
     0
  1
0
  0
DICTIONARYVAR
  5
745
102
{ACAD_REACTORS
330
35
102
}
330
35
100
DictionaryVariables
280
     0
  1
2
  0
DICTIONARY
  5
700
330
5A6
100
AcDbDictionary
280
     1
281
     1
  3
ADSK_XREC_LAYOUTTHUMBNAIL
360
701
  0
DICTIONARY
  5
68B
330
68A
100
AcDbDictionary
280
     1
281
     1
  3
BUMPTILE
360
68D
  3
DIFFUSETILE
360
68C
  3
OPACITYTILE
360
690
  3
REFLECTIONTILE
360
68F
  3
REFRACTIONTILE
360
691
  3
SPECULARTILE
360
68E
  0
DICTIONARY
  5
683
330
682
100
AcDbDictionary
280
     1
281
     1
  3
BUMPTILE
360
685
  3
DIFFUSETILE
360
684
  3
OPACITYTILE
360
688
  3
REFLECTIONTILE
360
687
  3
REFRACTIONTILE
360
689
  3
SPECULARTILE
360
686
  0
DICTIONARY
  5
693
330
692
100
AcDbDictionary
280
     1
281
     1
  3
BUMPTILE
360
695
  3
DIFFUSETILE
360
694
  3
OPACITYTILE
360
698
  3
REFLECTIONTILE
360
697
  3
REFRACTIONTILE
360
699
  3
SPECULARTILE
360
696
  0
DICTIONARY
  5
7BD
330
6B5
100
AcDbDictionary
280
     1
281
     1
  3
ACAD_ROUNDTRIP_2008_TABLESTYLE_CELLSTYLEMAP
360
7BE
  0
DICTIONARY
  5
7CA
330
6A0
100
AcDbDictionary
280
     1
281
     1
  3
ACAD_XREC_ROUNDTRIP
360
7CB
  0
DICTIONARY
  5
7C8
330
69F
100
AcDbDictionary
280
     1
281
     1
  3
ACAD_XREC_ROUNDTRIP
360
7C9
  0
DICTIONARY
  5
7D6
330
6A6
100
AcDbDictionary
280
     1
281
     1
  3
ACAD_XREC_ROUNDTRIP
360
7D7
  0
DICTIONARY
  5
7DE
330
6AA
100
AcDbDictionary
280
     1
281
     1
  3
ACAD_XREC_ROUNDTRIP
360
7DF
  0
DICTIONARY
  5
7D0
330
6A3
100
AcDbDictionary
280
     1
281
     1
  3
ACAD_XREC_ROUNDTRIP
360
7D1
  0
DICTIONARY
  5
7D4
330
6A5
100
AcDbDictionary
280
     1
281
     1
  3
ACAD_XREC_ROUNDTRIP
360
7D5
  0
DICTIONARY
  5
7EE
330
6B2
100
AcDbDictionary
280
     1
281
     1
  3
ACAD_XREC_ROUNDTRIP
360
7EF
  0
DICTIONARY
  5
7DC
330
6A9
100
AcDbDictionary
280
     1
281
     1
  3
ACAD_XREC_ROUNDTRIP
360
7DD
  0
DICTIONARY
  5
7C0
330
69B
100
AcDbDictionary
280
     1
281
     1
  3
ACAD_XREC_ROUNDTRIP
360
7C1
  0
DICTIONARY
  5
7C2
330
69C
100
AcDbDictionary
280
     1
281
     1
  3
ACAD_XREC_ROUNDTRIP
360
7C3
  0
DICTIONARY
  5
7C4
330
69D
100
AcDbDictionary
280
     1
281
     1
  3
ACAD_XREC_ROUNDTRIP
360
7C5
  0
DICTIONARY
  5
7C6
330
69E
100
AcDbDictionary
280
     1
281
     1
  3
ACAD_XREC_ROUNDTRIP
360
7C7
  0
DICTIONARY
  5
7CE
330
6A2
100
AcDbDictionary
280
     1
281
     1
  3
ACAD_XREC_ROUNDTRIP
360
7CF
  0
DICTIONARY
  5
7EA
330
6B0
100
AcDbDictionary
280
     1
281
     1
  3
ACAD_XREC_ROUNDTRIP
360
7EB
  0
DICTIONARY
  5
7DA
330
6A8
100
AcDbDictionary
280
     1
281
     1
  3
ACAD_XREC_ROUNDTRIP
360
7DB
  0
DICTIONARY
  5
7EC
330
6B1
100
AcDbDictionary
280
     1
281
     1
  3
ACAD_XREC_ROUNDTRIP
360
7ED
  0
DICTIONARY
  5
7D2
330
6A4
100
AcDbDictionary
280
     1
281
     1
  3
ACAD_XREC_ROUNDTRIP
360
7D3
  0
DICTIONARY
  5
7E8
330
6AF
100
AcDbDictionary
280
     1
281
     1
  3
ACAD_XREC_ROUNDTRIP
360
7E9
  0
DICTIONARY
  5
7E6
330
6AE
100
AcDbDictionary
280
     1
281
     1
  3
ACAD_XREC_ROUNDTRIP
360
7E7
  0
DICTIONARY
  5
7E0
330
6AB
100
AcDbDictionary
280
     1
281
     1
  3
ACAD_XREC_ROUNDTRIP
360
7E1
  0
DICTIONARY
  5
7E2
330
6AC
100
AcDbDictionary
280
     1
281
     1
  3
ACAD_XREC_ROUNDTRIP
360
7E3
  0
DICTIONARY
  5
7D8
330
6A7
100
AcDbDictionary
280
     1
281
     1
  3
ACAD_XREC_ROUNDTRIP
360
7D9
  0
DICTIONARY
  5
7CC
330
6A1
100
AcDbDictionary
280
     1
281
     1
  3
ACAD_XREC_ROUNDTRIP
360
7CD
  0
DICTIONARY
  5
7E4
330
6AD
100
AcDbDictionary
280
     1
281
     1
  3
ACAD_XREC_ROUNDTRIP
360
7E5
  0
XRECORD
  5
701
102
{ACAD_REACTORS
330
700
102
}
330
700
100
AcDbXrecord
280
     1
310
2800000000010000B0000000010008000000000000B00000000000000000000000010000000000000000000000000000FFFFFF000000000000000000000000000000000000000000000000000000000000000000330000006600000099000000CC000000FF00000000330000333300006633000099330000CC330000FF3300
310
0000660000336600006666000099660000CC660000FF66000000990000339900006699000099990000CC990000FF99000000CC000033CC000066CC000099CC0000CCCC0000FFCC000000FF000033FF000066FF000099FF0000CCFF0000FFFF000000003300330033006600330099003300CC003300FF003300003333003333
310
33006633330099333300CC333300FF33330000663300336633006666330099663300CC663300FF66330000993300339933006699330099993300CC993300FF99330000CC330033CC330066CC330099CC3300CCCC3300FFCC330000FF330033FF330066FF330099FF3300CCFF3300FFFF330000006600330066006600660099
310
006600CC006600FF00660000336600333366006633660099336600CC336600FF33660000666600336666006666660099666600CC666600FF66660000996600339966006699660099996600CC996600FF99660000CC660033CC660066CC660099CC6600CCCC6600FFCC660000FF660033FF660066FF660099FF6600CCFF6600
310
FFFF660000009900330099006600990099009900CC009900FF00990000339900333399006633990099339900CC339900FF33990000669900336699006666990099669900CC669900FF66990000999900339999006699990099999900CC999900FF99990000CC990033CC990066CC990099CC9900CCCC9900FFCC990000FF99
310
0033FF990066FF990099FF9900CCFF9900FFFF99000000CC003300CC006600CC009900CC00CC00CC00FF00CC000033CC003333CC006633CC009933CC00CC33CC00FF33CC000066CC003366CC006666CC009966CC00CC66CC00FF66CC000099CC003399CC006699CC009999CC00CC99CC00FF99CC0000CCCC0033CCCC0066CC
310
CC0099CCCC00CCCCCC00FFCCCC0000FFCC0033FFCC0066FFCC0099FFCC00CCFFCC00FFFFCC000000FF003300FF006600FF009900FF00CC00FF00FF00FF000033FF003333FF006633FF009933FF00CC33FF00FF33FF000066FF003366FF006666FF009966FF00CC66FF00FF66FF000099FF003399FF006699FF009999FF00CC
310
99FF00FF99FF0000CCFF0033CCFF0066CCFF0099CCFF00CCCCFF00FFCCFF0000FFFF0033FFFF0066FFFF0099FFFF00CCFFFF00FFFFFF00000000000D0D0D001A1A1A00282828003535350043434300505050005D5D5D006B6B6B00787878008686860093939300A1A1A100AEAEAE00BBBBBB00C9C9C900D6D6D600E4E4E400
310
F1F1F100FFFFFF000000000000000000000000000000000000000000000000000000000000000000000000000000000000000000000000000000000000000000000000000000000000000000000000000000000000000000000000000000000000000000000000000000000000000000000000000000000000000000000000
310
00000000000000000000000000000000000000000000000000000000000000000000000000000000000000000000000000000000000000000000000000000000000000000000000000000000000000000000000000000000000000000000000000000000000000000000000000000000000000000000000000000000000000
310
00000000000000000000000000000000000000000000000000000000000000000000000000000000000000000000000000000000000000000000000000000000000000000000000000000000F50000000000000000000000000000000000000000000000000000000000000000000000000000000000000000000000000000
310
00000000000000000000000000000000000000000000000000000000000000000000000000000000000000000000000000000000000000000000000000000000000000000000000000000000000000000000000000000000000000000000000000000000000000000000000000000000000000000000000000000000000000
310
00000000000000000000000000000000000000000000000000F500000000000000000000000000000000000000000000000000000000000000000000000000000000000000000000000000000000F5000000000000000000000000000000000000000000000000000000000000000000000000000000000000000000000000
310
00000000000000000000000000000000000000000000000000000000000000000000000000000000000000000000000000000000000000000000000000000000000000000000000000000000000000000000000000000000000000000000000000000000000000000000000000000000000000000000000000000000000000
310
000000000000000000000000000000000000000000000000000000F500000000000000000000000000000000000000000000000000000000000000000000000000000000000000000000000000000000F500000000000000000000000000000000000000000000000000000000000000000000000000000000000000000000
310
00000000000000000000000000000000000000000000000000000000000000000000000000000000000000000000000000000000000000000000000000000000000000000000000000000000000000000000000000000000000000000000000000000000000000000000000000000000000000000000000000000000000000
310
0000000000000000000000000000000000000000000000000000000000F500000000000000000000000000000000000000000000000000000000000000000000000000000000000000000000000000000000000000000000000000000000000000000000000000000000000000000000000000000000000000000000000000
310
00000000000000000000000000000000000000000000000000000000000000000000000000000000000000000000000000000000000000000000000000000000000000000000000000000000000000000000000000000000000000000000000000000000000000000000000000000000000000000000000000000000000000
310
000000000000000000000000000000000000000000000000000000000000000000000000000000000000000000000000000000000000000000000000000000000000000000000000000000000000000000000000F5000000000000000000000000000000000000000000000000000000000000000000000000000000000000
310
00000000000000000000000000000000000000000000000000000000000000000000000000000000000000000000000000000000000000000000000000000000000000000000000000000000000000000000000000000000000000000000000000000000000000000000000000000000000000000000000000000000000000
310
000000000000000000000000000000000000000000000000000000000000000000F500000000000000000000000000000000000000000000000000000000000000000000000000000000000000000000000000000000F500000000000000000000000000000000000000000000000000000000000000000000000000000000
310
00000000000000000000000000000000000000000000000000000000000000000000000000000000000000000000000000000000000000000000000000000000000000000000000000000000000000000000000000000000000000000000000000000000000000000000000000000000000000000000000000000000000000
310
0000000000000000000000000000000000000000000000000000000000000000000000F500000000000000000000000000000000000000000000000000000000000000000000000000000000000000000000000000000000F50000000000000000000000000000000000000000000000000000000000000000000000000000
310
00000000000000000000000000000000000000000000000000000000000000000000000000000000000000000000000000000000000000000000000000000000000000000000000000000000000000000000000000000000000000000000000000000000000000000000000000000000000000000000000000000000000000
310
00000000000000000000000000000000000000000000000000000000000000000000000000F500000000000000000000000000000000000000000000000000000000000000000000000000000000000000000000000000000000F5000000000000000000000000000000000000000000000000000000000000000000000000
310
00000000000000000000000000000000000000000000000000000000000000000000000000000000000000000000000000000000000000000000000000000000000000000000000000000000000000000000000000000000000000000000000000000000000000000000000000000000000000000000000000000000000000
310
000000000000000000000000000000000000000000000000000000000000000000000000000000F500000000000000000000000000000000000000000000000000000000000000000000000000000000000000000000000000000000F500000000000000000000000000000000000000000000000000000000000000000000
310
00000000000000000000000000000000000000000000000000000000000000000000000000000000000000000000000000000000000000000000000000000000000000000000000000000000000000000000000000000000000000000000000000000000000000000000000000000000000000000000000000000000000000
310
0000000000000000000000000000000000000000000000000000000000000000000000000000000000F500000000000000000000000000000000000000000000000000000000000000000000000000000000000000F5F5F5F5F5F5F5F5F5F5F5F5F5F5F500F5F5F5F500000000000000000000000000000000000000000000
310
00000000000000000000000000000000000000000000000000000000000000000000000000000000000000000000000000000000000000000000000000000000000000000000000000000000000000000000000000000000000000000000000000000000000000000000000000000000000000000000000000000000000000
310
000000000000000000000000000000000000000000000000000000000000000000F5F5F5F500F5F5F5F5F5F5F5F5F5F5F5F5F5F5F500000000000000000000000000000000000000000000000000000000000000000000000000000000000000F5000000000000000000000000000000000000000000000000000000000000
310
00000000000000000000000000000000000000000000000000000000000000000000000000000000000000000000000000000000000000000000000000000000000000000000000000000000000000000000000000000000000000000000000000000000000000000000000000000000000000000000000000000000000000
310
000000000000000000000000000000000000000000000000000000000000000000000000000000000000000000F500000000000000000000000000000000000000000000000000000000000000000000000000000000000000000000000000000000F500000000000000000000000000000000000000000000000000000000
310
00000000000000000000000000000000000000000000000000000000000000000000000000000000000000000000000000000000000000000000000000000000000000000000000000000000000000000000000000000000000000000000000000000000000000000000000000000000000000000000000000000000000000
310
0000000000000000000000000000000000000000000000000000000000000000000000000000000000000000000000F500000000000000000000000000000000000000000000000000000000000000000000000000000000000000000000000000000000F50000000000000000000000000000000000000000000000000000
310
00000000000000000000000000000000000000000000000000000000000000000000000000000000000000000000000000000000000000000000000000000000000000000000000000000000000000000000000000000000000000000000000000000000000000000000000000000000000000000000000000000000000000
310
00000000000000000000000000000000000000000000000000000000000000000000000000000000000000000000000000F500000000000000000000000000000000000000000000000000000000000000000000000000000000000000000000000000000000F5000000000000000000000000000000000000000000000000
310
00000000000000000000000000000000000000000000000000000000000000000000000000000000000000000000000000000000000000000000000000000000000000000000000000000000000000000000000000000000000000000000000000000000000000000000000000000000000000000000000000000000000000
310
000000000000000000000000000000000000000000000000000000000000000000000000000000000000000000000000000000F500000000000000000000000000000000000000000000000000000000000000000000000000000000000000000000000000000000F500000000000000000000000000000000000000000000
310
00000000000000000000000000000000000000000000000000000000000000000000000000000000000000000000000000000000000000000000000000000000000000000000000000000000000000000000000000000000000000000000000000000000000000000000000000000000000000000000000000000000000000
310
0000000000000000000000000000000000000000000000000000000000000000000000000000000000000000000000000000000000F500000000000000000000000000000000000000000000000000000000000000000000000000000000000000000000000000000000F50000000000000000000000000000000000000000
310
00000000000000000000000000000000000000000000000000000000000000000000000000000000000000000000000000000000000000000000000000000000000000000000000000000000000000000000000000000000000000000000000000000000000000000000000000000000000000000000000000000000000000
310
00000000000000000000000000000000000000000000000000000000000000000000000000000000000000000000000000000000000000F500000000000000000000000000000000000000000000000000000000000000000000000000000000000000000000000000000000F5000000000000000000000000000000000000
310
00000000000000000000000000000000000000000000000000000000000000000000000000000000000000000000000000000000000000000000000000000000000000000000000000000000000000000000000000000000000000000000000000000000000000000000000000000000000000000000000000000000000000
310
000000000000000000000000000000000000000000000000000000000000000000000000000000000000000000000000000000000000000000F500000000000000000000000000000000000000000000000000000000000000000000000000000000000000000000000000000000F500000000000000000000000000000000
310
00000000000000000000000000000000000000000000000000000000000000000000000000000000000000000000000000000000000000000000000000000000000000000000000000000000000000000000000000000000000000000000000000000000000000000000000000000000000000000000000000000000000000
310
0000000000000000000000000000000000000000000000000000000000000000000000000000000000000000000000000000000000000000000000F500000000000000000000000000000000000000000000000000000000000000000000000000000000000000000000000000000000F50000000000000000000000000000
310
00000000000000000000000000000000000000000000000000000000000000000000000000000000000000000000000000000000000000000000000000000000000000000000000000000000000000000000000000000000000000000000000000000000000000000000000000000000000000000000000000000000000000
310
00000000000000000000000000000000000000000000000000000000000000000000000000000000000000000000000000000000000000000000000000F50000000000000000000000000000000000000000000000000000000000000000000000000000000000000000000000000000000000000000000000000000000000
310
00000000000000000000000000000000000000000000000000000000000000000000000000000000000000000000000000000000000000000000000000000000000000000000000000000000000000000000000000000000000000000000000000000000000000000000000000000000000000000000000000000000000000
310
000000000000000000000000000000000000000000000000000000000000000000000000000000000000000000000000DCDCDCDCDCDCDCDCDCDCDC0000000000000000000000000000000000000000000000000000000000000000000000000000000000000000000000000000000000000000000000000000000000000000
310
00000000000000000000000000000000000000000000000000000000000000000000000000000000000000000000000000000000000000000000000000000000000000000000000000000000000000000000000000000000000000000000000000000000000000000000000000000000000000000000000000000000000000
310
0000000000000000000000000000000000000000000000000000000000000000000000000000000000000000000000000000DCDCDCDCDCDCDCDCDCDCDC000000000000000000000000000000000000000000000000000000000000000000000000000000000000000000000000000000000000000000000000DCDCDCDCDCDC
310
DCDCDCDCDCDCDCDCDCDCDCDCDCDCDCDCDCDCDCDCDCDCDCDCDCDCDCDCDCDCDCDCDCDCDCDCDCDCDCDCDCDCDCDCDCDCDCDCDCDCDCDCDCDCDCDCDCDCDCDCDCDCDCDCDCDCDCDCDCDCDCDCDCDCDCDCDCDCDCDCDCDCDCDCDCDCDCDCDCDCDCDCDCDCDCDCDCDCDCDCDCDCDCDCDCDCDCDCDCDCDCDCDCDCDCDCDCDCDCDCDCDCDCDCDCDCDC
310
DCDCDCDCDCDCDCDCDCDCDCDCDCDCDCDCDCDCDCDCDCDCDCDCDCDCDCDCDCDCDCDCDCDCDCDCDCDCDCDCDCDCDCDCDCDCDCDCDCDCDCDCDCDCDCDCDCDCDCDCDCDCDCDCDC00000000000000000000000000000000000000000000000000000000000000000000000000000000000000000000000000000000000000000000DCDCDCDC
310
DCDCDCDCDCDCDCDCDCDCDCDCDCDCDCDCDCDCDCDCDCDCDCDCDCDCDCDCDCDCDCDCDCDCDCDCDCDCDCDCDCDCDCDCDCDCDCDCDCDCDCDCDCDCDCDCDCDCDCDCDCDCDCDCDCDCDCDCDCDCDCDCDCDCDCDCDCDCDCDCDCDCDCDCDCDCDCDCDCDCDCDCDCDCDCDCDCDCDCDCDCDCDCDCDCDCDCDCDCDCDCDCDCDCDCDCDCDCDCDCDCDCDCDCDCDCDC
310
DCDCDCDCDCDCDCDCDCDCDCDCDCDCDCDCDCDCDCDCDCDCDCDCDCDCDCDCDCDCDCDCDCDCDCDCDCDCDCDCDCDCDCDCDCDCDCDCDCDCDCDCDCDCDCDCDCDCDCDCDCDCDCDCDCDCDC00000000000000000000000000000000000000000000000000000000000000000000000000000000000000000000000000000000000000000000DCDC
310
0000DCDCDCDCDCDCDCDCDCDC0000000000000000000000000000000000DCDCDCDCDC0000000000000000000000000000000000000000000000000000000000000000000000000000DCDCDCDCDCDCDCDCDCDCDCDCDCDCDCDCDCDCDCDCDCDCDCDCDCDCDCDCDCDCDCDCDCDCDCDCDCDC00000000DC000000000000000000000000
310
000000000000000000000000000000000000DC00000000000000000000000000000000000000000000000000000000DCDCDCDCDCDCDCDCDCDCDC000000000000000000DCDC00000000000000000000000000000000000000000000000000000000000000000000000000000000000000000000000000000000000000000000
310
DCDC0000DCDCDCDCDCDCDCDCDCDCDC00000000000000000000000000000000DC000000000000000000000000000000000000000000000000000000000000000000000000000000000000DC0000000000000000000000000000000000000000000000000000000000000000000000000000000000DC00000000000000000000
310
0000000000000000000000000000000000000000DCDCDCDCDCDCDCDCDCDCDCDCDCDCDCDCDCDCDCDCDCDC00000000000000DCDCDCDCDCDCDCDCDCDCDC000000000000000000DCDC0000000000000000000000000000000000000000000000000000000000000000000000000000000000000000000000000000000000000000
310
0000DCDC0000DCDCDCDCDCDCDCDCDCDC00DC00DCDCDCDCDCDCDCDCDCDC00000000DCDCDCDCDCDCDCDCDCDCDCDCDCDCDCDCDCDCDCDCDCDCDCDCDCDCDCDCDCDCDCDCDCDCDCDCDCDCDCDCDCDCDCDC0000000000000000000000000000000000000000000000000000000000000000000000000000000000DCDCDCDCDCDCDCDCDC
310
DCDC00DCDCDCDCDCDCDCDCDCDCDCDCDCDCDCDCDCDCDCDCDCDCDCDCDCDCDCDCDCDCDCDCDCDCDCDCDCDCDCDCDC00DCDCDCDCDCDCDC00000000000000000000000000000000000000DCDC000000000000000000000000000000000000000000000000000000000000000000000000000000000000000000000000000000000000
310
00000000DCDC0000DCDCDCDC00DCDCDCDCDC00DCDCDCDCDCDCDCDCDCDCDCDC00000000DCDCDCDCDC0000000000000000000000000000000000000000000000000000000000000000000000000000DC0000000000000000000000000000000000000000000000000000000000000000000000000000000000DC000000000000
310
000000000000000000000000000000000000000000000000DC00000000000000000000000000000000000000000000000000000000DCDCDCDCDC00DCDCDCDCDCDCDCDCDCDCDCDCDCDCDCDC00000000000000000000000000000000000000000000000000000000000000000000000000000000000000000000000000000000
310
000000000000DCDC0000000000000000000000000000000000DCDC00000000000000000000DC000000000000000000000000000000000000000000000000000000000000000000000000000000000000DCDCDCDCDCDCDCDCDCDCDCDCDCDCDCDCDCDCDCDCDCDCDCDCDCDCDCDCDCDCDCDCDCDCDCDCDCDCDCDCDCDCDC00000000
310
0000000000000000000000000000000000000000000000000000DC00000000000000000000000000000000000000000000000000000000DCDCDCDCDC000000000000000000000000000000DCDC0000000000000000000000000000000000000000000000000000000000000000000000000000000000000000000000000000
310
0000000000000000DCDC00DCDCDCDCDCDCDC00DCDCDCDCDCDCDCDCDCDCDCDCDCDCDCDCDC000000DCDCDCDCDCDCDCDCDCDCDCDCDCDCDCDCDCDCDCDCDCDCDCDCDCDCDCDCDCDCDCDCDCDCDCDCDCDCDCDCDCDCDCDCDCDCDCDCDCDCDCDCDCDCDCDCDCDCDCDCDCDCDCDCDCDCDCDCDCDCDCDCDCDCDCDCDCDCDCDCDCDCDCDC00DCDCDC
310
DCDCDCDCDCDCDCDCDCDCDCDCDCDCDCDCDCDCDCDCDCDCDCDCDCDCDCDCDCDCDCDCDCDCDCDCDCDCDCDCDCDCDCDCDCDC00DCDCDCDCDCDCDCDCDCDCDC00000000000000000000000000000000000000DCDC000000000000000000000000000000000000000000000000000000000000000000000000000000000000000000000000
310
00000000000000000000DCDC00DCDCDCDCDCDCDCDCDCDCDCDCDCDCDCDCDCDCDCDCDCDCDCDCDC000000DCDCDCDC000000000000000000000000000000000000000000000000000000000000000000000000000000DC0000000000000000000000000000000000000000000000000000000000000000000000000000000000DC
310
DCDCDCDCDCDCDCDCDCDCDCDCDCDCDCDCDCDCDC0000000000000000000000DCDCDCDCDCDCDCDCDCDCDCDCDCDCDCDCDCDC0000000000000000000000DCDCDCDCDCDCDCDCDCDCDCDCDCDCDCDCDCDCDCDCDCDC00000000000000000000000000000000000000000000000000000000000000000000000000000000000000000000
310
000000000000000000000000DCDC00DCDCDCDCDCDCDCDCDCDCDCDCDCDCDCDCDCDCDCDCDCDCDCDCDCDC0000DCDCDCDC000000000000000000000000000000000000000000000000000000000000000000000000000000DC00000000000000000000000000000000000000000000000000000000000000000000000000000000
310
00DC000000000000000000000000000000000000000000000000000000000000DC00000000000000000000000000000000000000000000000000000000DCDCDCDCDC000000000000000000000000000000DCDC0000000000000000000000000000000000000000000000000000000000000000000000000000000000000000
310
0000000000000000000000000000DCDC00DCDCDCDCDCDC00DCDCDCDCDCDCDCDCDCDCDCDCDCDCDCDCDCDCDC0000DC000000000000000000000000000000000000000000000000000000000000000000000000000000000000DCDCDCDCDCDCDCDCDCDCDCDCDCDCDCDCDCDCDCDCDCDCDCDCDCDCDCDCDCDCDCDCDCDCDCDCDCDCDC
310
DCDCDCDC000000000000000000000000000000000000000000000000000000000000DC00000000000000000000000000000000000000000000000000000000DC00000000000000000000000000000000000000DCDC000000000000000000000000000000000000000000000000000000000000000000000000000000000000
310
00000000000000000000000000000000DCDC00DCDCDCDCDCDCDCDCDCDCDCDCDCDCDCDCDCDCDCDCDCDCDCDCDCDC0000DCDCDCDCDCDCDCDCDCDCDCDCDCDCDCDCDCDCDCDCDCDCDCDCDCDCDCDCDCDCDCDCDCDCDCDCDCDCDCDCDCDCDCDC0000000000DCDCDCDCDCDCDCDCDCDCDC00000000000000DCDCDCDCDCDCDCDCDCDC000000
310
0000000000DCDCDCDCDCDCDCDCDCDCDCDCDCDCDCDCDC0000DCDCDCDCDCDCDCDCDCDCDCDCDCDCDCDCDCDCDCDCDCDCDCDCDCDCDCDCDCDCDC0000DCDCDCDCDCDCDCDCDC00000000000000000000000000000000000000DCDC00000000000000000000000000000000000000000000000000000000000000000000000000000000
310
000000000000000000000000000000000000DCDC00DCDCDCDCDCDCDCDCDCDCDCDCDC000000000000000000000000000000DCDCDCDCDC0000000000000000000000000000000000000000000000000000000000000000000000000000DC00000000DCDCDCDCDCDCDCDCDCDCDCDCDC000000000000DCDCDCDCDCDCDCDCDCDC00
310
00000000000000DCDCDCDCDCDCDCDCDCDCDCDCDCDCDCDCDC0000000000000000000000000000DCDCDCDCDCDCDCDCDCDCDCDCDCDCDCDCDCDCDC00000000000000000000DCDCDCDCDCDCDCDCDCDCDC000000DCDCDCDCDC00DCDC0000000000000000000000000000000000000000000000000000000000000000000000000000
310
0000000000000000000000000000000000000000DCDC00DCDCDCDCDCDCDC000000000000000000000000000000000000000000DC000000000000000000000000000000000000000000000000000000000000000000000000000000000000DC00000000DCDCDCDCDCDCDCDCDCDCDCDCDC000000000000DC0000000000000000
310
000000000000000000DC000000000000000000000000000000000000000000000000000000000000DC00000000000000000000000000000000000000000000000000000000DCDCDCDCDCDCDCDCDCDCDC00DCDCDCDC00DCDCDCDCDC000000000000000000000000000000000000000000000000000000000000000000000000
310
00000000000000000000000000000000000000000000DCDCDCDCDCDCDCDCDCDCDCDCDCDCDCDCDCDCDCDCDCDCDCDCDCDCDCDCDCDCDCDCDCDCDCDCDCDCDCDCDCDCDCDCDCDCDCDCDCDCDCDCDCDCDCDCDCDCDCDCDCDCDCDCDCDCDCDCDCDCDCDCDCDCDCDCDCDCDCDCDCDCDCDCDCDCDCDCDCDCDCDCDCDCDCDCDCDCDCDCDCDCDCDCDC
310
DCDCDCDCDCDCDCDCDCDCDCDCDCDCDCDCDCDCDCDCDCDCDCDCDCDCDCDCDCDCDCDCDCDCDCDCDCDCDCDCDCDCDCDCDCDCDCDCDCDCDCDCDCDCDCDCDCDCDCDCDCDCDCDCDCDCDCDCDCDCDCDCDCDCDCDCDCDCDCDCDCDCDCDCDCDCDCDCDCDCDCDCDC00000000000000000000000000000000000000000000000000000000000000000000
310
000000000000000000000000000000000000000000000000DCDC0000000000000000000000000000000000000000000000000000000000000000000000000000000000000000000000000000000000000000000000000000000000000000000000000000000000000000000000000000000000000000000000000000000000
310
000000000000000000000000000000000000000000000000000000000000000000000000000000000000000000000000000000000000000000000000000000000000000000000000000000000000000000000000000000000000000000DCDC0000000000000000000000000000000000000000000000000000000000000000
310
0000000000000000000000000000000000000000000000000000DCDC0000000000000000DCDCDCDCDCDCDCDCDCDCDCDCDCDCDCDCDCDCDCDCDCDCDCDCDCDC0000000000000000000000000000000000000000000000000000000000000000000000000000000000000000000000000000000000000000000000000000000000
310
0000000000000000000000000000000000000000000000000000000000000000000000000000000000000000000000000000000000000000000000000000000000000000000000000000000000000000000000000000000000000000000000DCDC000000000000000000000000000000000000000000000000000000000000
310
00000000000000000000000000000000000000000000000000000000DCDC0000000000000000DCDCDCDCDCDCDCDCDCDCDCDCDCDCDCDCDCDCDCDCDCDCDCDCDCDC000000000000000000000000000000000000000000000000000000000000000000000000000000000000000000000000000000000000000000000000000000
310
00000000000000000000000000000000000000000000000000000000000000000000000000000000000000000000000000000000000000000000000000000000000000000000000000000000000000000000000000000000000000000000000000DCDC00000000000000000000000000000000000000000000000000000000
310
000000000000000000000000000000000000000000000000000000000000DCDC0000000000DCDCDCDCDCDCDCDCDCDCDCDCDCDCDCDCDCDCDCDCDCDCDCDCDCDCDCDC0000000000000000000000000000000000000000000000000000000000000000000000000000000000000000000000000000000000000000000000000000
310
000000000000000000000000000000000000000000000000000000000000000000000000000000000000000000000000000000000000000000000000000000000000000000000000000000000000000000000000000000000000000000000000000000DCDC0000000000000000000000000000000000000000000000000000
310
0000000000000000000000000000000000000000000000000000000000000000DCDC0000000000DC00DCDCDCDCDCDCDCDCDCDCDCDCDCDCDCDCDCDCDCDCDCDCDCDCDCDC000000000000000000000000000000000000000000000000000000000000000000000000000000000000000000000000000000000000000000000000
310
000000000000000000000000000000000000000000000000000000000000000000000000000000000000000000000000000000000000000000000000000000000000000000000000000000000000DCDCDCDCDCDCDCDCDCF500DCDCDCDCDC00000000000000DCDC000000000000000000000000000000000000000000000000
310
00000000000000000000000000000000000000000000000000000000000000000000DCDC0000000000DCDCDCDCDCDCDCDCDCDCDCDCDCDCDCDCDCDCDCDCDCDCDCDCDCDCDCDC00000000000000000000000000000000000000000000000000000000000000000000000000000000000000000000000000000000000000000000
310
0000000000000000000000000000000000000000000000000000000000000000000000000000000000000000000000000000000000000000000000000000000000000000000000000000000000000000DCDCDCDC0000000000DC000000DCDC0000000000000000DCDC00000000000000000000000000000000000000000000
310
000000000000000000000000000000000000000000000000000000000000000000000000DCDC0000000000000000DCDCDCDCDCDCDCDCDCDCDCDCDCDCDCDCDCDCDCDCDCDCDCDCDC0000000000000000000000000000000000000000000000000000000000000000000000000000000000000000000000000000000000000000
310
00000000000000000000000000000000000000000000000000000000000000000000000000000000000000000000000000000000000000000000000000000000000000000000000000000000000000000000DCDC00DC0000000000DC00000000DC0000000000000000DCDC0000000000000000000000000000000000000000
310
0000000000000000000000000000000000000000000000000000000000000000000000000000DCDC000000000000000000000000000000000000000000000000000000000000000000000000000000000000000000000000000000000000000000000000000000000000000000000000000000000000000000000000000000
310
000000000000000000000000000000000000000000000000000000000000000000000000000000000000000000000000000000000000000000000000000000000000000000000000000000000000000000000000DCDCDCDC0000000000DC00000000DC0000000000000000DCDC000000000000000000000000000000000000
310
00000000000000000000000000000000000000000000000000000000000000000000000000000000DCDC0000000000DCDCDCDCDCDCDCDCDCDCDCDCDCDCDCDCDCDCDCDCDCDCDCDCDC00000000000000000000000000000000000000DCDCDCDCDCDCDCDCDCDCDCDCDCDCDC000000000000000000000000000000000000000000
310
0000000000000000000000000000000000000000000000000000000000000000000000000000000000000000000000000000000000000000000000000000000000000000000000000000000000000000000000000000DCDCDCDC0000000000DC00000000DC0000000000000000DCDC00000000000000000000000000000000
310
000000000000000000000000000000000000000000000000000000000000000000000000000000000000DCDC0000000000DC00DCDCDCDCDCDCDCDCDCDCDCDCDCDCDCDCDCDCDCDCDCDCDC00000000000000000000000000000000000000DC00DCDCDCDCDCDCDCDCDCDCDCDCDC00000000000000000000000000000000000000
310
00000000000000000000000000000000000000000000000000000000000000000000000000000000000000000000000000000000000000000000000000000000000000000000000000000000000000000000000000000000DCDCDCDC0000000000DC00000000DC0000000000000000DCDC0000000000000000000000000000
310
0000000000000000000000000000000000000000000000000000000000000000000000000000000000000000DCDC0000000000DCDCDCDCDCDCDCDCDCDCDCDCDCDCDCDCDCDCDCDCDCDCDCDCDCDCDCDCDCDCDCDC000000000000000000000000DCDCDC0000000000000000000000000000000000000000000000000000000000
310
000000000000000000000000000000000000000000000000000000000000000000000000000000000000000000000000000000000000000000000000000000000000000000000000000000000000000000000000000000000000DCDCDCDC0000000000DC00000000DC0000000000000000DCDC000000000000000000000000
310
00000000000000000000000000000000000000000000000000000000000000000000000000000000000000000000DCDC0000000000DCDCDCDCDCDCDCDCDCDCDCDCDCDCDCDCDCDCDCDCDCDCDCDCDCDCDCDCDCDCDCDC000000000000000000000000DCDCDCDCDCDCDCDCDCDCDCDCDCDC00000000000000000000000000000000
310
0000000000000000000000000000000000000000000000000000000000000000000000000000000000000000000000000000000000000000000000000000000000000000000000000000000000000000000000000000000000000000DCDCDCDC0000000000DC00000000DC0000000000000000DCDC00000000000000000000
310
000000000000000000000000000000000000000000000000000000000000000000000000000000000000000000000000DCDC0000000000DCDCDCDCDCDCDCDCDCDCDCDCDCDCDCDCDCDCDCDCDCDCDCDCDC00000000000000000000000000000000000000DCDCDC00000000000000000000000000000000000000000000000000
310
00000000000000000000000000000000000000000000000000000000000000000000000000000000000000000000000000000000000000000000000000000000000000000000000000000000000000000000000000000000000000000000DCDCDCDC0000000000DC00000000DC0000000000000000DCDC0000000000000000
310
0000000000000000000000000000000000000000000000000000000000000000000000000000000000000000000000000000DCDC0000000000DCDCDCDCDCDCDCDCDCDCDCDCDCDCDCDCDCDCDCDCDCDCDCDC00000000DCDC0000000000000000000000000000DCDCDCDCDCDCDCDCDCDCDCDCDCDC000000000000000000000000
310
000000000000000000000000000000000000000000000000000000000000000000000000000000000000000000000000000000000000000000000000000000000000000000000000000000000000000000000000000000000000000000000000DCDCDCDC0000000000DC00000000DC0000000000000000DCDC000000000000
310
00000000000000000000000000000000000000000000000000000000000000000000000000000000000000000000000000000000DCDC00000000000000000000000000000000000000000000000000000000000000000000DC0000000000000000000000000000DC00DCDCDCDCDCDCDCDCDCDCDCDC00000000000000000000
310
0000000000000000000000000000000000000000000000000000000000000000000000000000000000000000000000000000000000000000000000000000000000000000000000000000000000000000000000000000000000000000000000000000DCDCDCDC0000000000DC00000000DC0000000000000000DCDC00000000
310
000000000000000000000000000000000000000000000000000000000000000000000000000000000000000000000000000000000000DCDC0000000000000000000000000000000000000000000000000000000000000000000000DC00000000000000000000000000DCDCDCDCDCDCDCDCDCDCDCDCDCDC0000000000000000
310
00000000000000000000000000000000000000000000000000000000000000000000000000000000000000000000000000000000000000000000000000000000000000000000000000000000000000000000000000000000000000000000000000000000DCDCDCDC0000000000DC00000000DC0000000000000000DCDC0000
310
0000000000000000000000000000000000000000000000000000000000000000000000000000000000000000000000000000000000000000DCDC0000000000DC0000DC0000000000000000000000000000000000000000000000000000DC00000000000000000000000000DC00DCDCDCDCDCDCDCDCDCDCDCDC000000000000
310
DC000000DC00000000000000000000000000000000000000000000000000000000000000000000000000000000000000000000000000000000000000000000000000000000000000000000000000000000000000000000000000000000000000000000000000DCDCDCDC0000000000DC00000000DC0000000000000000DCDC
310
00000000000000000000000000000000000000000000000000000000000000000000000000000000000000000000000000000000000000000000DCDC0000000000DC0000DC0000000000000000000000000000000000000000000000000000DC00000000000000000000000000DCDCDC000000000000000000000000000000
310
0000DC000000DC000000000000DCDCDCDCDCDCDCDCDCDCDCDCDCDCDCDCDCDCDCDCDCDCDCDCDCDCDC00000000000000000000000000000000000000000000000000000000000000000000000000000000000000000000000000000000000000000000000000000000DCDCDCDC0000000000DC00000000DC0000000000000000
310
DCDC00000000000000000000000000000000000000000000000000000000000000000000000000000000000000000000000000000000000000000000DCDC0000000000DC0000DC000000000000000000000000000000000000000000000000000000DC000000000000000000000000DCDCDCDCDCDCDCDCDCDCDCDCDCDCDCDC
310
DCDC0000DC000000DC00000000DCDCDCDCDCDCDCDCDCDCDCDCDCDCDCDCDCDCDCDCDCDCDCDCDCDCDCDCDC00000000000000000000000000000000000000000000000000000000000000000000000000000000000000000000000000000000000000000000000000000000DCDCDCDC0000000000DC00000000DC000000000000
310
0000DCDC00000000000000000000000000000000000000000000000000000000000000000000000000000000000000000000000000000000000000000000DCDC0000000000DC0000DC000000000000000000000000000000000000000000000000000000DC000000000000000000DCDC00DCDCDCDCDCDCDCDCDCDCDCDCDCDC
310
DCDCDC000000DC000000DC00000000DC0000000000000000000000000000000000000000000000000000000000000000000000000000000000000000000000000000000000000000000000000000000000000000000000000000000000000000000000000000000000000000DCDCDCDC0000000000DC00000000DC00000000
310
00000000DCDC00000000000000000000000000000000000000000000000000000000000000000000000000000000000000000000000000000000000000000000DCDC0000000000DC0000DC000000000000000000000000000000000000000000000000000000DC000000000000000000DC0000000000000000000000000000
310
0000000000000000DC000000DC000000DC000000000000000000000000000000000000000000000000000000000000000000000000000000000000000000000000000000000000000000000000000000000000000000000000000000000000000000000000000000000000000000DCDCDCDC0000000000DC00000000DC0000
310
000000000000DCDC00000000000000000000000000000000000000000000000000000000000000000000000000000000000000000000000000000000000000000000DCDC0000000000DC0000DC00000000000000000000000000000000000000000000000000000000DC00000000000000DC00000000000000000000000000
310
00000000000000000000DC000000DC000000DC000000000000000000000000000000000000000000000000000000000000000000000000000000000000000000000000000000000000000000000000000000000000000000000000000000000000000000000000000000000000000000DCDCDCDC0000000000DC00000000DC
310
0000000000000000DCDC00000000000000000000000000000000000000000000000000000000000000000000000000000000000000000000000000000000000000000000DCDC0000000000DC0000DC000000000000000000000000000000000000000000000000DCDCDCDCDCDCDCDCDCDC0000DC0000000000000000000000
310
000000000000000000000000DC000000DC0000DC00000000000000000000000000000000000000000000000000000000000000000000000000000000000000000000000000000000000000000000000000000000000000000000000000000000000000000000000000000000000000000000DCDCDCDC0000000000DC000000
310
00DC0000000000000000DCDC00000000000000000000000000000000000000000000000000000000000000000000000000000000000000000000000000000000000000000000DCDC0000000000DC0000DC000000000000000000000000000000000000000000000000DC00000000DC000000DC00DC00000000000000000000
310
0000000000000000000000000000DC000000DC0000DC00000000000000000000000000000000000000000000000000000000000000000000000000000000000000000000000000000000000000000000000000000000000000000000000000000000000000000000000000000000000000000000DCDCDCDC0000000000DC00
310
000000DC0000000000000000DCDC00000000000000000000000000000000000000000000000000000000000000000000000000000000000000000000000000000000000000000000DCDC0000000000DC0000DC000000000000000000000000000000000000000000000000DC0000000000000000DC00DC0000000000000000
310
00000000000000000000000000000000DC000000DC00DC0000000000000000000000000000000000000000000000000000000000000000000000000000000000000000000000000000000000000000000000000000000000000000000000000000000000000000000000000000000000000000000000DCDC00DC0000000000
310
DC00000000DC0000000000000000DCDC00000000000000000000000000000000000000000000000000000000000000000000000000000000000000000000000000000000000000000000DCDC00000000DCDCDCDCDC000000000000000000DCDCDCDCDCDCDCDCDCDCDCDCDCDCDCDCDCDCDCDCDCDCDCDCDCDCDCDCDCDCDCDCDC
310
DCDCDCDCDCDCDCDC00000000000000000000DCDCDCDCDCDCDC0000000000000000000000000000000000000000000000000000000000000000000000000000000000000000000000000000000000000000000000000000000000000000000000000000000000000000000000000000000000000000000000DCDCDCDC000000
310
0000DC00000000DC0000000000000000DCDC00000000000000000000000000000000000000000000000000000000000000000000000000000000000000000000000000000000000000000000DCDC0000DCDCDC0000DCDCDCDCDCDCDCDCDCDCDCDCDCDC000000000000000000000000000000DCDCDCDCDC0000000000000000
310
00000000000000DCDCDCDCDCDCDCDCDCDCDCDCDCDCDCDC00DCDCDC0000000000000000000000000000000000000000000000000000000000000000000000000000000000000000000000000000000000000000000000000000000000000000000000000000000000000000000000000000000000000000000000DCDCDCDC00
310
00000000DC00000000DC0000000000000000DCDC00000000000000000000000000000000000000000000000000000000000000000000000000000000000000000000000000000000000000000000DCDC00DCDCDCDCDCDCDCDCDCDCDCDCDCDCDCDCDCDCDCDCDCDCDCDCDCDCDCDCDCDCDCDC00DCDCDCDCDCDCDCDCDCDCDCDCDC
310
DCDCDCDCDCDCDCDCDCDCDCDCDCDCDCDCDCDCDCDCDCDCDCDCDCDCDCDCDCDCDC000000000000000000000000000000000000000000000000000000000000000000000000000000000000000000000000000000000000000000000000000000000000000000000000000000000000000000000000000000000000000000DCDCDC
310
DC0000000000DC00000000DC0000000000000000DCDC00000000000000000000000000000000000000000000000000000000000000000000000000000000000000000000000000000000000000000000DCDC00000000DCDCDCDCDC00000000DC00000000DCDCDCDCDCDCDCDCDCDCDCDCDCDCDCDCDCDCDCDCDCDCDCDCDCDCDC
310
DCDCDCDCDCDCDCDCDCDCDCDCDCDC00000000000000000000DCDCDCDCDC00000000000000000000000000000000000000000000000000000000000000000000000000000000000000000000000000000000000000000000000000000000000000000000000000000000000000000000000000000000000000000000000000DC
310
DCDCDC0000000000DC00000000DC0000000000000000DCDC00000000000000000000000000000000000000000000000000000000000000000000000000000000000000000000000000000000000000000000DCDC00000000DC0000DCDC00000000DCDC000000000000000000000000000000000000DC000000DCDC000000DC
310
00000000000000000000000000000000000000000000000000DCDCDC00DCDC000000000000000000000000000000000000000000000000000000000000000000000000000000000000000000000000000000000000000000000000000000000000000000000000000000000000000000000000000000000000000000000000
310
00DCDCDCDC0000000000DC00000000DC0000000000000000DCDC00000000000000000000000000000000000000000000000000000000000000000000000000000000000000000000000000000000000000000000DCDC0000000000000000DC0000000000DC000000000000000000000000000000000000DC00000000DC0000
310
00DC000000000000000000000000000000000000000000000000DCDCDC000000DC00000000000000000000000000000000000000000000000000000000000000000000000000000000000000000000000000000000000000000000000000000000000000000000000000000000000000000000000000000000000000000000
310
000000DCDCDCDC0000000000DC00000000DC0000000000000000DCDC00000000000000000000000000000000000000000000000000000000000000000000000000000000000000000000000000000000000000000000DCDC0000000000000000DC000000000000DC0000000000000000000000000000000000DCDCDCDCDCDC
310
DCDCDCDC00000000000000DCDCDCDCDCDCDC0000000000000000000000DCDC000000DC0000000000000000000000000000000000000000000000000000000000000000000000000000000000000000000000000000000000000000000000000000000000000000000000000000000000000000000000000000000000000000
310
0000000000DCDCDCDC0000000000DC00000000DC0000000000000000DCDC00000000000000000000000000000000000000000000000000000000000000000000000000000000000000000000000000000000000000000000DCDC0000DCDCDCDCDCDCDC000000000000DC000000000000000000000000000000000000000000
310
00DC0000000000000000000000DCDCDCDCDCDCDC00000000000000000000DC00DCDCDCDCDCDC0000000000000000000000000000000000000000000000000000000000000000000000000000000000000000000000000000000000000000000000000000000000000000000000000000000000000000000000000000000000
310
00000000000000DCDCDCDC0000000000DC00000000000000000000000000DCDC00000000000000000000000000000000000000000000000000000000000000000000000000000000000000000000000000000000000000000000DCDC000000000000000000000000000000DC00000000000000000000000000000000000000
310
000000DC00000000000000000000000000000000000000000000000000000000DC000000000000DC000000000000000000000000000000000000000000000000000000000000000000000000000000000000000000000000000000000000000000000000000000000000000000000000000000000000000000000000000000
310
000000000000000000DCDCDCDC0000000000DC000000DCDC0000000000000000DCDC00000000000000000000000000000000000000000000000000000000000000000000000000000000000000000000000000000000000000000000DCDC00000000000000000000000000000000DC0000DCDCDCDCDCDCDCDCDCDCDCDCDC00
310
000000000000DC00000000000000000000DCDCDCDCDCDCDCDCDCDCDCDCDC000000DC0000000000000000DC0000000000000000000000000000000000000000000000000000000000000000000000000000000000000000000000000000000000000000000000000000000000000000DCDCDCDCDCDCDCDCDC00000000000000
310
0000000000000000000000DCDCDCDC0000000000DC000000DCDC0000000000000000DCDC00000000000000000000000000000000000000000000000000000000000000000000000000000000000000000000000000000000000000000000DCDC00000000000000000000000000000000DCDCDCDCDCDCDCDCDCDCDCDCDCDCDC
310
DC00000000000000DC00000000000000000000DCDCDCDCDCDCDCDCDCDCDCDCDC00DCDCDC0000000000000000DC0000000000000000000000000000000000000000000000000000000000000000000000000000000000000000000000000000000000000000000000000000000000DCDCDCDCDCDCDCDCDCDCDCDC0000000000
310
00000000000000000000000000DCDCDCDC0000000000DC000000DCDCDCDC000000000000DCDC00000000000000000000000000000000000000000000000000000000000000000000000000000000000000000000000000000000000000000000DCDC0000000000000000000000000000000000000000000000000000000000
310
00000000000000000000DC0000000000000000000000000000000000000000000000000000000000000000000000DC0000000000000000000000000000000000000000000000000000000000000000000000000000000000000000000000000000000000000000000000000000000000DC00DCDCDCDCDCDCDC000000000000
310
000000000000000000000000000000DCDCDCDC0000000000DC000000DCDCDCDC000000000000DCDC00000000000000000000000000000000000000000000000000000000000000000000000000000000000000000000000000000000000000000000DCDC000000000000000000000000000000000000000000000000000000
310
000000000000000000000000DC000000000000000000000000000000000000000000000000000000000000000000000000DC0000DCDCDCDCDCDCDCDCDCDCDCDC0000000000000000000000000000000000000000000000000000000000000000000000000000000000000000000000000000DCDCDCDCDCDCDCDCDC00000000
310
0000000000000000000000000000000000DCDCDCDC0000000000DC000000DCDCDCDC000000000000DCDC00000000000000000000000000000000000000000000000000000000000000000000000000000000000000000000000000000000000000000000DCDC00000000000000000000000000000000000000000000000000
310
000000000000000000000000000000DC0000000000000000000000000000000000000000000000000000000000000000000000DCDCDCDCDCDCDCDCDCDCDCDCDCDCDC0000000000000000000000000000000000000000000000000000000000000000000000000000000000000000000000000000000000DCDCDCDCDCDCDCDC
310
DC000000000000000000000000000000000000DCDCDCDC0000000000DC000000DCDCDCDC000000000000DCDC00000000000000000000000000000000000000000000000000000000000000000000000000000000000000000000000000000000000000000000DCDC0000000000000000000000000000000000000000000000
310
0000000000000000000000000000000000DC00DCDCDCDCDCDCDCDCDCDCDCDCDCDCDCDCDCDCDCDCDCDCDCDCDCDC00000000000000000000000000000000000000000000000000000000000000000000000000000000000000000000000000000000000000000000000000000000000000000000000000DCDCDCDCDCDCDCDCDC
310
DCDCDC0000000000000000000000000000000000DCDCDCDCDC0000000000DC000000DCDCDCDC000000000000DCDC00000000000000000000000000000000000000000000000000000000000000000000000000000000000000000000000000000000000000000000DCDC000000000000000000000000000000000000000000
310
00000000000000000000000000000000000000DCDCDCDCDCDCDCDCDCDCDCDCDCDCDCDCDCDCDCDCDCDCDCDCDCDCDCDC00000000000000000000000000000000000000000000000000000000000000000000000000000000000000000000000000000000000000000000000000000000000000000000000000DC00DCDCDCDCDC
310
DCDCDCDCDCDCDC000000000000000000000000000000DCDCDCDCDC0000000000DC000000DCDCDCDC000000000000DCDC00000000000000000000000000000000000000000000000000000000000000000000000000000000000000000000000000000000000000000000DCDC00000000000000000000000000000000000000
310
0000000000000000000000000000000000000000000000000000000000000000000000000000000000000000000000000000000000000000000000000000000000000000000000000000000000000000000000000000000000000000000000000000000000000000000000000000000000000000000000000000DCDCDCDCDC
310
DCDCDCDCDCDCDCDCDC000000000000000000000000000000DCDCDCDCDC0000000000DC000000DCDCDCDC000000000000DCDC00000000000000000000000000000000000000000000000000000000000000000000000000000000000000000000000000000000000000000000DCDC0000000000000000000000000000000000
310
00000000000000000000000000000000000000000000000000000000000000000000000000000000000000000000000000000000000000000000000000000000000000000000000000000000000000000000000000000000000000000000000000000000000000000000000000000000000000000000000000000000000000
310
0000000000000000000000000000000000000000000000000000DCDCDCDCDC0000000000DC000000DCDCDCDC000000000000DCDC00000000000000000000000000000000000000000000000000000000000000000000000000000000000000000000000000000000000000000000DCDC000000000000000000000000000000
310
000000000000000000000000000000000000000000000000000000000000000000000000000000000000000000000000000000000000000000000000000000000000000000000000000000000000000000000000000000000000000000000000000000000000000000000000000000000000000000000000000000000000DC
310
DCDCDCDCDCDCDCDCDCDCDCDCDCDCDCDCDCDCDC000000000000000000DCDCDCDCDC0000000000DC000000DCDCDCDC000000000000DCDC00000000000000000000000000000000000000000000000000000000000000000000000000000000000000000000000000000000000000000000DCDC00000000000000000000000000
310
00000000000000000000000000000000000000000000000000000000000000000000000000000000000000000000000000000000000000000000000000000000000000000000000000000000000000000000000000000000000000000000000000000000000000000000000000000000000000000000000000000000000000
310
00DCDCDCDCDCDCDCDCDCDCDCDCDCDCDCDCDC000000DCDC00000000000000DCDCDCDCDC0000000000DC000000DCDCDCDC000000000000DCDC00000000000000000000000000000000000000000000000000000000000000000000000000000000000000000000000000000000000000000000DCDC000000DCDCDCDCDCDCDCDC
310
DCDCDCDCDCDCDCDCDCDCDCDCDCDCDCDCDCDCDCDCDCDCDCDCDCDCDCDCDCDCDCDCDCDC000000000000000000000000000000000000000000000000000000000000000000000000000000000000000000000000000000000000000000000000000000000000000000000000000000000000000000000000000000000000000000
310
00000000000000000000000000000000000000000000000000DCDC0000000000DCDCDCDCDC0000000000DC000000DCDCDCDC000000000000DCDC00000000000000000000000000000000000000000000000000000000000000000000000000000000000000000000000000000000000000000000DCDC000000DCDCDCDCDCDC
310
DCDCDCDCDCDCDCDCDCDCDCDCDCDCDCDCDCDCDCDCDCDCDCDCDCDCDCDCDCDCDCDCDCDCDCDC00000000000000000000000000000000000000000000000000000000000000000000000000000000000000000000000000000000000000000000000000000000000000000000000000000000000000000000000000000000000000
310
0000000000000000000000000000000000000000000000000000000000DCDC000000DCDCDCDCDC0000000000DC000000DCDCDCDC000000000000DCDC00000000000000000000000000000000000000000000000000000000000000000000000000000000000000000000000000000000000000000000DCDC000000DCDCDCDC
310
DCDCDCDCDCDCDCDCDCDCDCDCDCDCDCDCDCDCDCDCDCDCDCDCDCDCDCDCDCDCDCDCDCDCDCDCDCDCDCDCDCDCDCDCDCDCDCDCDCDC0000000000000000000000000000000000000000000000000000000000000000000000000000000000000000000000000000000000000000000000000000000000000000000000000000000000
310
000000000000000000000000000000000000000000000000000000000000000000DCDC00DCDCDCDCDC0000000000DC000000DCDCDCDC000000000000DCDC00000000000000000000000000000000000000000000000000000000000000000000000000000000000000000000000000000000000000000000DCDC000000DCDC
310
DCDCDCDCDCDCDCDCDCDCDCDCDCDCDCDCDCDCDCDCDCDCDCDCDCDCDCDCDCDCDCDCDCDCDCDCDCDCDCDCDCDCDCDCDCDCDCDCDCDCDCDC000000000000000000000000000000000000000000000000000000000000000000000000000000000000000000000000000000000000000000000000000000000000000000000000000000
310
00000000000000000000000000000000000000000000000000000000000000000000000000DCDCDCDCDCDC0000000000DC000000DCDCDCDC000000000000DCDC00000000000000000000000000000000000000000000000000000000000000000000000000000000000000000000000000000000000000000000DCDC000000
310
DCDCDCDCDCDCDCDCDCDCDCDCDCDCDCDCDCDCDCDCDCDCDCDCDCDCDCDCDCDCDCDCDCDCDCDCDCDCDCDCDCDCDCDCDCDCDCDCDCDCDCDCDCDCDCDCDC000000000000000000000000000000000000000000000000000000000000000000000000000000000000000000000000000000000000000000000000000000000000DCDCDCDC
310
DCDCDCDCDCDCDCDCDCDCDCDCDCDC0000000000000000000000000000000000000000000000000000DCDCDCDCDC0000000000DC000000DCDCDCDC000000000000DCDC00000000000000000000000000000000000000000000000000000000000000000000000000000000000000000000000000000000000000000000DCDC00
310
0000DCDCDCDCDCDCDCDCDCDCDCDCDCDCDCDCDCDCDCDCDCDCDCDCDCDCDCDCDCDCDCDCDCDCDCDCDCDCDCDCDCDCDCDCDCDCDCDCDCDCDCDCDCDCDCDCDC000000000000000000000000000000000000000000000000000000000000000000000000000000000000000000000000000000000000000000000000000000000000DCDC
310
DCDCDCDCDCDCDCDCDCDCDCDCDCDCDCDC0000000000000000000000000000000000000000000000000000DCDCDCDCDC0000000000DC000000DCDCDCDC000000000000DCDC00000000000000000000000000000000000000000000000000000000000000000000000000000000000000000000000000000000000000000000DC
310
DC000000DCDCDCDCDCDCDCDCDCDCDCDCDCDCDCDCDCDCDCDCDCDCDCDCDCDCDCDCDCDCDCDCDCDCDCDCDCDCDCDCDCDCDCDCDCDCDCDCDCDCDCDCDCDCDCDC000000000000000000000000000000000000000000000000000000000000000000000000000000DCDC000000000000000000000000000000000000000000000000DCDC
310
DCDCDCDCDCDCDCDCDCDCDCDCDCDCDCDCDCDCDC00000000000000000000000000000000000000000000000000DCDCDCDCDC0000000000DC000000DCDC0000000000000000DCDC000000000000000000000000000000000000000000000000000000000000000000000000000000000000000000000000000000000000000000
310
00DCDC000000DCDCDCDCDCDCDCDCDCDCDCDCDCDCDCDCDCDCDCDCDCDCDCDCDCDCDCDCDCDCDCDCDCDCDCDCDCDCDCDCDCDCDCDCDCDCDCDCDCDCDCDCDCDCDCDC000000000000000000000000000000000000000000000000000000000000000000000000000000DCDCDCDCDCDCDCDCDCDCDCDCDCDCDCDCDCDCDCDCDCDCDCDCDCDC
310
DCDCDCDCDCDCDCDCDCDCDCDCDCDCDCDCDCDCDCDCDC0000DCDCDCDCDCDCDCDCDCDCDCDCDCDCDCDCDCDCDCDCDCDCDCDCDCDCDCDC0000000000DC000000DCDC0000000000000000DCDC00000000000000000000000000000000000000000000000000000000000000000000000000000000000000000000000000000000000000
310
000000DCDC0000000000000000000000000000000000000000000000000000000000000000000000000000000000000000000000000000000000000000000000000000000000000000000000000000000000000000000000000000000000000000000000000000DC0000000000000000000000000000000000000000000000
310
000000000000000000000000000000000000000000000000000000000000000000000000000000000000000000000000DCDCDCDCDC0000000000DC000000DCDC0000000000000000DCDC0000000000000000000000000000000000000000000000000000000000000000000000000000000000000000000000000000000000
310
0000000000DCDC0000DCDCDCDCDCDC000000000000000000000000000000000000000000000000000000000000000000000000000000000000000000000000000000000000000000000000000000000000000000000000000000000000000000000000000000000000DC000000000000000000000000000000000000000000
310
0000000000000000000000000000000000000000000000000000000000000000000000000000000000000000000000000000DCDCDCDCDC0000000000DC00000000000000000000000000DCDC000000000000000000000000000000000000000000000000000000000000000000000000000000000000000000000000000000
310
00000000000000DCDC0000DCDCDCDCDC00000000000000000000000000000000000000000000000000000000000000000000000000000000000000000000000000000000000000000000000000000000000000000000000000000000000000000000000000000000000000DC00000000000000000000000000000000000000
310
00000000000000000000000000000000000000000000000000000000000000000000000000000000000000000000000000000000DCDCDC00DC0000000000DC00000000DC0000000000000000DCDC00000000000000000000000000000000000000000000000000000000000000000000000000000000000000000000000000
310
000000000000000000DCDC0000000000000000000000000000000000000000000000000000000000000000000000000000000000000000000000000000000000000000000000000000000000000000000000000000000000000000000000000000000000000000000000000000DC0000000000000000000000000000000000
310
000000000000000000000000000000000000000000000000000000000000000000000000000000000000000000000000000000000000DCDCDCDCDC0000000000DC00000000DC0000000000000000DCDC0000000000000000000000000000000000000000000000000000000000000000000000000000000000000000000000
310
0000000000000000000000DCDC0000000000000000000000000000000000000000000000000000000000000000000000000000000000000000000000000000000000000000000000000000000000000000000000000000000000000000000000000000000000000000000000000000DC000000000000000000000000000000
310
0000000000000000000000000000000000000000000000000000000000000000000000000000000000000000000000000000000000000000DCDCDCDCDC0000000000DC00000000DC0000000000000000DCDC000000000000000000000000000000000000000000000000000000000000000000000000000000000000000000
310
00000000000000000000000000DCDC0000000000000000000000000000000000000000000000000000000000000000000000000000000000000000000000000000000000000000000000000000000000000000000000000000000000000000000000000000000000000000000000000000DC00000000000000000000000000
310
000000000000000000000000000000000000000000DCDCDCDCDCDCDCDCDCDCDCDCDCDCDCDCDCDCDCDCDCDCDCDCDCDCDCDC000000000000000000DCDCDCDCDC0000000000DC00000000DC0000000000000000DCDC00000000000000000000000000000000000000000000000000000000000000000000000000000000000000
310
000000000000000000000000000000DCDC0000000000000000000000000000000000000000000000000000000000000000000000000000000000000000000000000000000000000000000000000000000000000000000000000000000000000000000000000000000000000000000000000000DC0000000000000000000000
310
0000000000000000000000000000000000000000000000DCDCDCDCDCDCDCDCDCDCDCDCDCDCDCDCDCDCDCDCDCDCDCDCDCDCDCDC000000000000000000DCDCDCDCDC0000000000DC00000000DC0000000000000000DCDC0000000000000000000000000000000000000000000000000000000000000000000000000000000000
310
0000000000000000000000000000000000DCDC000000000000000000000000000000000000000000000000000000000000000000000000000000000000000000000000000000000000000000000000000000000000DCDCDCDCDCDCDCDCDCDCDCDCDCDC000000000000000000000000000000000000DC000000000000000000
310
00000000000000000000000000000000000000000000000000DCDCDCDCDCDCDCDCDCDCDCDCDCDCDCDCDCDCDCDCDCDCDCDCDCDCDCDC000000000000000000DCDCDCDCDC0000000000DC00000000DC0000000000000000DCDC000000000000000000000000000000000000000000000000000000000000000000000000000000
310
00000000000000000000000000000000000000DCDC000000000000000000000000000000000000000000000000000000000000000000000000000000000000000000000000000000000000000000000000000000000000DC00DCDCDCDCDCDCDCDCDCDCDCDC000000000000000000000000000000000000DC00000000000000
310
000000000000000000000000000000000000000000000000000000DCDCDCDCDCDCDCDCDCDCDCDCDCDCDCDCDCDCDCDCDCDCDCDCDCDCDCDC000000000000000000DCDCDCDCDC0000000000DC00000000DC0000000000000000DCDC00000000000000000000000000000000000000000000000000000000000000000000000000
310
000000000000000000000000000000000000000000DCDC000000000000000000000000000000000000000000000000000000000000000000000000000000000000000000000000000000000000000000000000000000000000DCDCDC0000000000000000000000000000000000000000000000000000000000DC0000000000
310
0000000000000000000000000000000000DC000000000000000000000000000000000000DCDCDCDCDCDCDCDCDCDCDC00000000000000000000000000000000000000DCDCDCDCDC0000000000DC00000000DC0000000000000000DCDC0000000000000000000000000000000000000000000000000000000000000000000000
310
0000000000000000000000000000000000000000000000DCDC000000000000000000000000000000000000000000000000000000000000000000000000000000000000000000000000000000000000000000000000000000000000DCDCDCDCDCDC0000000000000000000000000000000000000000000000000000DC000000
310
00000000000000000000000000000000000000DCDCDCDCDCDCDCDCDCDCDCDCDCDCDCDCDCDCDCDCDCDCDCDCDCDCDCDCDCDC000000DCDCDCDCDCDCDCDCDCDCDCDCDCDCDCDCDCDCDCDCDC0000000000DC00000000DC0000000000000000DCDC000000000000000000000000000000000000000000000000000000000000000000
310
00000000000000000000000000000000000000000000000000DCDC000000000000000000000000000000000000000000000000000000000000000000000000000000000000000000000000000000000000000000000000000000000000DC00DCDCDCDC0000000000000000000000000000000000000000000000000000DC00
310
000000000000000000000000000000000000000000DC000000000000000000000000000000000000000000000000000000000000000000000000000000000000000000000000DCDCDCDCDC0000000000DC00000000DC0000000000000000DCDC00000000000000000000000000000000000000000000000000000000000000
310
000000000000000000000000000000000000000000000000000000DCDC000000000000000000000000000000000000000000000000000000000000000000000000000000000000000000000000000000000000000000000000000000000000DCDCDC0000000000000000000000000000000000000000000000000000000000
310
DC00000000000000000000000000000000000000000000DC000000000000000000000000000000000000000000000000000000000000000000000000000000000000000000000000DCDCDCDCDC0000000000DC00000000DC0000000000000000DCDC0000000000000000000000000000000000000000000000000000000000
310
0000000000000000000000000000000000000000000000000000000000DCDC000000000000000000000000000000000000000000000000000000000000000000000000000000000000000000000000000000000000000000000000000000000000DCDCDCDCDCDCDC0000000000000000000000000000000000000000000000
310
0000DC00000000000000000000000000000000000000000000DC000000000000000000000000000000000000000000000000000000000000000000000000000000000000000000000000DCDCDCDCDC0000000000DC00000000DC0000000000000000DCDC000000000000000000000000000000000000000000000000000000
310
00000000000000000000000000000000000000000000000000000000000000DCDC000000000000000000000000000000000000000000000000000000000000000000000000000000000000000000000000000000000000000000000000000000000000DC00DCDCDCDCDC000000000000000000000000000000000000000000
310
00000000DCDCDC00DCDC0000000000000000000000000000000000DC00000000000000DCDCDCDCDCDCDCDCDCDCDCDC0000000000000000000000000000000000000000000000000000000000DCDCDCDCDC0000000000DC00000000DC0000000000000000DCDC00000000000000000000000000000000000000000000000000
310
000000000000000000000000000000000000000000000000000000000000000000DCDC000000000000000000000000000000000000000000000000000000000000000000000000000000000000000000000000000000000000000000000000000000000000DCDCDC0000000000000000000000000000000000000000000000
310
000000000000DCDCDC00DCDC0000000000000000000000000000000000DC00000000000000DCDCDCDCDCDCDCDCDCDCDCDC0000000000000000000000000000000000000000000000000000000000DCDCDCDCDC0000000000DC00000000DC0000000000000000DCDC0000000000000000000000000000000000000000000000
310
0000000000000000000000000000000000000000000000000000000000000000000000DCDC000000000000000000000000000000000000000000000000000000000000000000000000000000000000000000000000000000000000000000000000000000000000DCDCDCDCDCDCDCDCDCDCDCDCDCDCDCDCDCDC000000000000
310
0000000000000000DCDCDC0000000000000000000000000000000000000000DCDCDCDCDC000000DCDCDCDCDCDCDCDCDCDCDCDC000000000000000000000000DCDCDCDCDCDCDCDCDCDCDCDC0000000000DCDCDCDCDC0000000000DC00000000DC0000000000000000DCDC000000000000000000000000000000000000000000
310
00000000000000000000000000000000000000000000000000000000000000000000000000DCDC000000000000000000000000000000000000000000000000000000000000000000000000000000000000000000000000000000000000000000000000000000000000DCDCDCDCDCDCDCDCDCDCDCDCDCDCDCDCDCDC00000000
310
00000000000000000000DCDCDC00DCDCDCDCDCDCDCDCDCDCDCDCDCDC0000000000DCDC00DCDC000000DCDCDCDCDCDCDCDCDCDCDCDC000000000000000000000000DCDCDCDCDCDCDCDCDCDCDCDC0000000000DCDCDCDCDC0000000000DC00000000DC0000000000000000DCDC00000000000000000000000000000000000000
310
000000000000000000000000000000000000000000000000000000000000000000000000000000DCDC000000000000000000000000000000000000000000000000000000000000000000000000000000000000000000000000000000000000000000000000000000000000DCDCDCDCDCDCDCDCDCDCDCDCDCDCDCDCDC000000
310
000000000000000000000000DCDCDC00DCDCDCDCDCDCDCDCDCDCDCDCDCDC0000000000DCDCDCDC00000000DCDCDCDCDCDCDCDCDCDCDCDCDCDCDCDCDC00000000000000DCDCDCDCDCDCDCDCDCDCDC000000000000DCDCDCDCDC0000000000DC00000000DC0000000000000000DCDC0000000000000000000000000000000000
310
0000000000000000000000000000000000000000000000000000000000000000000000000000000000DCDC000000000000000000000000000000000000000000000000000000000000000000000000000000000000000000000000000000000000000000000000000000000000DCDCDCDCDCDCDCDCDCDCDCDCDCDCDCDC0000
310
0000000000000000000000000000DCDCDC0000000000000000000000000000000000000000DC00000000000000DCDCDCDCDCDCDCDCDCDCDCDCDCDCDCDCDC00000000000000DCDCDCDCDCDCDCDCDCDCDC000000000000DCDCDC00DC0000000000DC00000000DC0000000000000000DCDC000000000000000000000000000000
310
00000000000000000000000000000000000000000000000000000000000000000000000000000000000000DCDC00000000000000000000000000000000000000000000000000000000000000000000000000000000000000000000000000000000000000000000000000000000000000000000000000000000000000000000
310
00000000000000000000000000000000DCDCDCDCDCDCDCDCDCDCDCDCDCDCDCDCDC000000000000DCDCDCDCDCDC0000DCDCDCDCDCDCDCDCDCDCDCDC0000000000000000000000000000000000000000000000000000000000DCDCDCDCDC0000000000DC00000000DC0000000000000000DCDC00000000000000000000000000
310
000000000000000000000000000000000000000000000000000000000000000000000000000000000000000000DCDC0000000000000000000000000000000000000000000000000000000000000000000000000000000000000000000000000000000000000000000000000000000000000000000000000000000000000000
310
000000000000000000000000000000000000DCDCDCDCDCDCDCDCDCDCDCDCDCDCDCDC00DCDC00000000DCDC00DCDCDC0000DCDCDCDCDCDCDCDCDCDCDCDC0000000000000000000000DCDCDCDCDCDCDCDCDC000000000000000000DCDC00DCDC0000000000DC00000000DC0000000000000000DCDC0000000000000000000000
310
0000000000000000000000000000000000000000000000000000000000000000000000000000000000000000000000DCDC000000000000000000000000000000000000000000000000000000000000000000000000000000000000000000000000000000000000000000000000000000000000000000000000000000000000
310
0000000000000000000000000000000000000000DC000000000000000000000000000000000000DC000000DCDCDCDC000000000000000000000000000000000000000000000000000000DCDCDCDCDCDCDCDCDCDCDCDCDC0000000000DCDC00DCDC0000000000DC00000000DC0000000000000000DCDC000000000000000000
310
00000000000000000000000000000000000000000000000000000000000000000000000000000000000000000000000000DCDC000000000000000000000000000000000000000000000000000000000000000000000000000000000000000000000000000000000000000000000000000000000000DCDCDCDCDCDCDCDCDCDC
310
DCDCDCDC000000000000000000000000000000000000DC00000000000000000000000000000000000000DC0000DCDCDCDCDCDCDCDCDCDCDCDCDCDCDCDCDCDCDCDCDC00000000000000000000000000000000000000000000DC00000000DCDCDC00DCDC0000000000DC00000000DC0000000000000000DCDC00000000000000
310
000000000000000000000000000000000000000000000000000000000000000000000000000000000000000000000000000000DCDC000000000000000000000000000000000000000000000000000000000000000000000000000000000000000000000000000000000000000000000000000000000000DC00DCDCDCDCDCDC
310
DCDCDCDCDCDC000000000000000000000000000000000000DC0000000000000000000000000000000000000000DC00DCDCDCDCDCDCDCDCDCDCDCDCDCDCDCDCDCDCDCDC0000DCDCDCDCDCDC00000000000000000000000000000000DC0000DCDCDC0000DCDC0000000000DC00000000DC0000000000000000DCDC0000000000
310
0000000000000000000000000000000000000000000000000000000000000000000000000000000000000000000000000000000000DCDC000000000000000000000000000000000000000000000000000000000000000000000000000000000000000000000000000000000000000000000000000000000000DCDCDC000000
310
0000000000000000000000000000000000000000000000000000DC000000000000000000000000000000000000000000DCDC000000000000000000000000000000000000000000000000000000DC000000000000000000000000000000DC0000DCDCDC0000DCDC0000000000DC00000000DC0000000000000000DCDC000000
310
00000000000000000000000000000000000000000000000000000000000000000000000000000000000000000000000000000000000000DCDC000000000000000000000000000000000000000000000000000000000000000000000000000000000000000000000000000000000000000000000000000000000000DCDCDCDC
310
DCDC0000000000000000000000000000000000000000000000000000DC00000000000000000000000000000000000000000000DC000000000000000000000000000000000000000000000000000000DC00000000000000000000000000000000DCDCDCDC000000DCDC0000000000DC00000000DC0000000000000000DCDC00
310
000000000000000000000000000000000000000000000000000000000000000000000000000000000000000000000000000000000000000000DCDC000000000000000000000000000000000000000000000000000000000000000000000000000000000000000000000000000000000000000000000000000000000000DC00
310
DCDCDCDC0000000000000000000000000000000000000000000000000000DC00000000000000000000000000000000000000000000DCDC00000000000000000000000000000000000000DCDC000000000000DC0000000000000000000000000000DCDCDC00DC000000DCDC0000000000DC00000000DC0000000000000000DC
310
DC00000000000000000000000000000000000000000000000000000000000000000000000000000000000000000000000000000000000000000000DCDC000000000000000000000000000000000000000000000000000000000000000000000000000000000000000000000000000000000000000000000000000000000000
310
DCDCDC00000000000000000000000000000000000000000000000000000000000000000000000000000000000000000000000000000000DC00DC000000000000000000000000000000000000DCDC000000000000DC00000000000000000000000000DCDCDC00DC00000000DCDC0000000000DC00000000DC00000000000000
310
00DCDC00000000000000000000000000000000000000000000000000000000000000000000000000000000000000000000000000000000000000000000DCDC00000000000000000000000000000000000000000000000000000000000000000000000000000000000000000000000000000000000000000000000000000000
310
0000DCDCDCDCDCDCDC000000000000000000000000000000000000000000000000000000000000000000000000000000000000000000000000000000DCDC00000000000000000000000000000000DCDC00000000000000DC00000000000000000000DCDCDCDCDCDC00000000DCDCDCDCDCDCDCDCDC00DCDCDCDCDCDCDCDCDC
310
000000DCDC00000000000000000000000000000000000000000000000000000000000000000000000000000000000000000000000000000000000000000000DCDC0000000000000000000000000000000000000000000000000000000000000000000000000000000000000000000000000000000000000000000000000000
310
00000000DCDCDCDCDCDCDC000000000000000000000000000000000000000000000000000000000000000000000000000000000000000000000000DCDCDCDCDCDCDCDCDCDCDCDCDCDCDCDCDCDCDCDCDCDCDCDCDCDCDCDCDCDCDCDCDCDCDCDCDCDCDCDCDCDCDCDCDCDCDCDCDCDCDCDCDCF5DCDCDCDCDCDCDCDCDCDCDCDC0000
310
DC00000000DCDC00000000000000000000000000000000000000000000000000000000000000000000000000000000000000000000000000000000000000000000DCDC000000000000000000000000000000000000000000000000000000000000000000000000000000000000000000000000000000000000000000000000
310
0000000000000000000000000000000000000000000000000000000000000000000000000000DCDCDCDCDCDCDCDCDCDCDCDCDCDCDCDC00000000000000DCDCDCDCDCDCDCDCDCDCDCDCDCDCDCDCDCDCDCDCDCDCDCDCDCDCDCDCDCDCDCDCDCDCDCDCDCDCDCDCDCDCDC00000000DCDC00DCDCDCDC000000DC00DC000000000000
310
0000DC00000000DCDC00000000000000000000000000000000000000000000000000000000000000000000000000000000000000000000000000000000000000000000DCDC00000000000000000000000000000000000000000000000000000000000000000000000000000000000000000000000000000000000000000000
310
0000000000000000DCDCDCDCDCDCDCDCDCDCDCDCDCDCDCDCDCDCDCDCDC0000000000000000000000DC0000000000000000000000000000DC00000000000000DCDCDCDCDCDCDCDCDCDCDCDCDCDCDCDCDCDCDCDCDCDCDCDCDCDCDCDCDCDCDCDCDCDCDCDCDCDCDCDCDCDCDCDCDCDCDCDCDCDCDC0000DC0000DC0000DC00000000
310
00000000DC00000000DCDC00000000000000000000000000000000000000000000000000000000000000000000000000000000000000000000000000000000000000000000DCDC0000000000000000000000000000000000000000000000000000000000000000000000000000000000000000000000000000000000000000
310
00000000000000000000DCDCDCDCDCDCDCDCDCDCDCDCDCDCDCDCDCDCDCDCDCDCDCDC0000000000000000DC0000000000000000000000000000DC00000000000000DCDCDCDCDCDCDCDCDCDCDCDCDCDCDCDCDCDCDCDCDCDCDCDCDCDCDCDCDCDCDCDCDCDCDCDCDCDCDCDCDCDCDCDCDCDCDCDCDCDCDCDCDCDC00DC0000DCDC0000
310
000000000000DC00000000DCDC00000000000000000000000000000000000000000000000000000000000000000000000000000000000000000000000000000000000000000000DCDC000000000000000000000000000000000000000000000000000000000000000000000000000000000000000000000000000000000000
310
000000000000000000000000000000000000000000000000000000000000000000000000DCDCDC0000000000DC0000000000000000000000000000DC00000000000000DCDCDCDC0000DC0000000000000000000000000000DCDC00DC0000000000000000000000000000000000000000DC0000DCDC00DC00DCDC0000DC00DC
310
0000000000000000DC00000000DCDC00000000000000000000000000000000000000000000000000000000000000000000000000000000000000000000000000000000000000000000DCDC00000000000000000000000000000000000000000000000000000000000000000000000000000000000000000000000000000000
310
0000000000000000000000000000000000000000000000000000000000000000000000000000000000DCDCDC0000DC0000000000000000000000000000DC00000000000000DCDC00000000DC000000000000000000000000000000DC00DC0000000000000000000000000000000000000000DC0000DCDCDCDCDCDC0000DC00
310
00DC0000000000000000DC00000000DCDC00000000000000000000000000000000000000000000000000000000000000000000000000000000000000000000000000000000000000000000DCDC0000000000000000000000000000000000000000000000000000000000000000000000000000000000000000000000000000
310
00000000000000000000000000000000000000000000000000000000000000000000000000000000000000000000DCDCDC00DC000000000000000000000000DC00000000000000DCDC0000000000000000000000000000000000000000DC00DC0000000000000000000000000000000000000000DC00DCDC0000DCDCDC00DC
310
0000DCDC0000000000000000DC00000000DCDC00000000000000000000000000000000000000000000000000000000000000000000000000000000000000000000000000000000000000000000DCDC000000000000000000000000000000000000000000000000000000000000000000000000000000000000000000000000
310
0000000000000000000000000000000000000000000000000000000000000000000000000000000000000000000000000000DCDCDCDC0000000000000000000000DC0000000000DCDCDCDC0000000000000000000000000000000000000000DC00DC0000000000000000000000000000000000000000DC00DC00DCDCDCDCDC
310
DC0000DC00DC0000000000000000DC00000000DCDC00000000000000000000000000000000000000000000000000000000000000000000000000000000000000000000000000000000000000000000DCDC00000000000000000000000000000000000000000000000000000000000000000000000000000000000000000000
310
00000000000000000000000000000000000000000000000000000000000000000000000000000000000000000000000000000000DC0000000000000000000000000000DC0000000000DC00DCDC0000000000000000000000000000000000000000DC00DC00000000000000000000000000000000000000DC0000DCDC0000DC
310
DCDC0000DC0000DC0000000000000000DC00000000DCDC00000000000000000000000000000000000000000000000000000000000000000000000000000000000000000000000000000000000000000000DCDC0000000000000000000000000000000000000000000000000000000000000000000000000000000000000000
310
000000000000000000000000000000000000000000000000000000000000000000000000000000000000000000000000000000000000DC0000000000000000000000000000DCDCDCDCDCDCDCDCDCDCDCDCDCDCDCDCDCDCDCDCDCDCDCDCDCDCDCDCDCDCDCDCDCDCDCDCDCDCDCDCDCDCDCDCDCDCDCDCDCDCDCDCDCDCDCDCDCDC
310
DCDCDCDC00DC0000DCDC0000000000000000DC00000000DCDC00000000000000000000000000000000000000000000000000000000000000000000000000000000000000000000000000000000000000000000DCDC000000000000000000000000000000000000000000000000000000000000000000000000000000000000
310
0000000000000000000000000000000000000000000000000000000000000000000000000000000000000000000000000000000000000000DCDCDCDCDCDCDCDCDCDCDCDCDCDCDCDCDCDCDCDCDCDCDCDCDCDCDCDCDCDCDCDCDCDCDCDCDCDCDCDCDCDCDCDCDCDCDCDCDCDCDCDCDCDCDCDCDCDCDCDCDCDCDCDCDCDCDCDCDCDCDC
310
DCDCDCDCDCDCDC0000DC00DC0000000000000000DC00000000DCDC00000000000000000000000000000000000000000000000000000000000000000000000000000000000000000000000000000000000000000000DCDC00000000000000000000000000000000000000000000000000000000000000000000000000000000
310
000000000000000000000000000000000000000000000000000000000000000000000000000000000000000000000000000000000000000000000000000000000000000000000000000000DCDCDCDCDCDCDCDCDCDCDCDCDCDCDCDCDCDCDCDCDCDCDCDCDCDCDCDCDCDCDCDCDCDCDCDCDCDCDCDCDCDCDCDCDCDCDCDCDCDCDCDC
310
DCDCDC00DCDCDCDCDCDCDCDCDCDCDCDCDCDCDCDCDCDCDCDC000000DCDC00000000000000000000000000000000000000000000000000000000000000000000000000000000000000000000000000000000000000000000DCDC0000000000000000000000000000000000000000000000000000000000000000000000000000
310
000000000000000000000000000000000000000000000000000000000000000000000000000000000000000000000000000000000000000000000000000000000000000000000000000000DCDCDCDCDCDCDCDCDCDCDCDCDCDCDCDCDCDCDCDCDCDCDCDCDCDCDCDCDCDCDCDCDCDCDCDCDCDCDCDCDCDCDCDCDCDCDCDCDCDCDCDC
310
DCDCDCDCDC00000000DC00DC0000DCDC00000000000000DCDC00000000DCDC00000000000000000000000000000000000000000000000000000000000000000000000000000000000000000000000000000000000000000000DCDC000000000000000000000000000000000000000000000000000000000000000000000000
310
0000000000000000000000000000000000000000000000000000000000000000000000000000000000000000000000000000000000000000000000000000000000000000000000000000000000DCDC000000000000DC00DCDC00DC0000000000000000DC00DCDC00DCDC00000000000000DC00DC0000DC0000000000000000
310
DCDCDC0000DC0000000000DCDC0000DC00DC00000000000000DCDC00000000DCDC00000000000000000000000000000000000000000000000000000000000000000000000000000000000000000000000000000000000000000000DCDC00000000DCDCDCDCDCDCDCDCDCDCDCDCDCDCDCDCDCDCDCDCDCDCDCDC000000000000
310
0000000000000000000000000000000000000000000000000000000000000000000000000000000000000000000000DCDCDCDCDCDCDCDCDCDCDCDCDCDCDCDCDCDCDCDCDCDCDC0000000000000000DC00000000000000DC00DC0000DC00DC000000000000DC00DC0000DCDCDC000000000000DC00DC00DC0000DC0000000000
310
00DC00DC00DC0000DC00000000DC0000DC0000DC00000000000000DCDC00000000DCDC00000000000000000000000000000000000000000000000000000000000000000000000000000000000000000000000000000000000000000000DCDC00000000DCDCDCDCDCDCDCDCDCDCDCDCDCDCDCDCDCDCDCDCDCDCDCDC00000000
310
00000000000000000000000000000000000000000000000000000000000000000000000000000000000000000000000000DCDCDCDCDCDCDCDCDCDCDCDCDCDCDCDCDCDCDCDCDCDCDC00000000000000DC0000DC00000000DC00DC00000000DC00DCDC000000DC00DC00000000DC00DCDC000000DC00DC000000DC0000DC0000
310
0000DC00DCDC0000DC0000DC000000DC00DC000000DC00000000000000DCDC00000000DCDC00000000000000000000000000000000000000000000000000000000000000000000000000000000000000000000000000000000000000000000DCDC00000000DCDCDCDCDCDCDCDCDCDCDCDCDCDCDCDCDCDCDCDCDCDCDCDCDCDC
310
DCDCDCDCDCDCDCDC000000000000000000000000000000000000000000000000000000000000000000000000000000000000000000000000000000000000000000000000000000000000000000000000DC0000DC00DCDC00DC00DC000000000000DC0000DC00DC00DC00000000DC00DC0000DC00DC00DC0000000000DCDC00
310
DC0000DC00DC00DC000000DCDC00DC0000DCDC000000DCDC00000000000000DCDC00000000DCDC00000000000000000000000000000000000000000000000000000000000000000000000000000000000000000000000000000000000000000000DCDC00000000DCDCDCDCDCDCDCDCDCDCDCDCDCDCDCDCDCDCDCDCDCDCDCDC
310
DCDCDCDCDCDCDCDCDCDC00000000000000000000000000000000000000000000000000000000000000000000000000000000000000DCDCDCDCDCDCDCDCDCDCDCDCDCDCDC00000000000000000000000000DC00000000DC0000DC00DC0000000000000000DC0000DC00DC0000000000DC0000DC0000DC00DC00000000000000
310
00DC00DCDC00DC0000DC0000000000DC00DC00DC000000DC00DC00000000000000DCDC00000000DCDC00000000000000000000000000000000000000000000000000000000000000000000000000000000000000000000000000000000000000000000DCDC00000000DCDCDCDCDCDCDCDCDCDCDCDC00000000000000000000
310
00000000000000000000000000000000000000000000000000000000000000000000000000000000000000000000000000000000000000DCDCDCDCDCDCDCDCDCDCDCDCDCDC0000DCDCDCDCDCDCDCDCDCDCDCDC000000DCDCDCDCDCDCDCDCDCDCDCDCDCDCDCDCDCDCDCDCDCDCDCDCDCDCDCDCDCDCDCDCDCDCDCDCDCDCDCDCDC
310
DCDCDCDCDCDCDCDCDCDCDCDCDCDCDCDCDCDCDCDCDCDCDCDCDC0000DC00000000000000DCDC00000000DCDC00000000000000000000000000000000000000000000000000000000000000000000000000000000000000000000000000000000000000000000DCDC00000000DCDCDCDCDCDCDCDCDCDCDCDC0000000000000000
310
0000000000000000000000000000000000000000000000000000000000000000000000000000000000000000000000000000000000000000000000000000000000000000000000000000000000000000000000000000000000000000DC00000000000000000000000000DC00000000000000DC0000000000DC000000000000
310
00000000000000DC00000000DC0000000000000000DC00000000DC00DCDC00000000000000DCDC00000000DCDC00000000000000000000000000000000000000000000000000000000000000000000000000000000000000000000000000000000000000000000DCDC00000000DCDCDCDCDCDCDCDCDCDCDCDC000000000000
310
000000000000000000000000000000000000000000000000000000000000000000000000000000000000000000000000000000000000000000000000000000000000000000000000000000000000000000000000000000000000DCDCDCDCDCDCDCDCDCDCDCDCDCDCDCDCDCDCDCDCDCDCDCDCDCDCDCDCDCDCDCDCDCDCDCDCDC
310
DCDCDCDCDCDCDCDCDCDCDCDCDCDCDCDCDCDCDCDCDCDCDCDCDCDCDCDCDCDC00DC00000000000000DCDC00000000DCDC00000000000000000000000000000000000000000000000000000000000000000000000000000000000000000000000000000000000000000000DCDC00000000DCDCDCDCDCDCDCDCDCDCDCDC00000000
310
000000000000000000000000000000000000000000000000000000000000000000000000000000000000000000000000000000000000000000000000000000000000000000000000000000000000000000000000000000000000000000000000000000000000000000000000000000000000000000DC000000000000000000
310
00000000000000000000000000000000DC00000000000000000000DC0000DC0000DC00000000000000DCDC00000000DCDC00000000000000000000000000000000000000000000000000000000000000000000000000000000000000000000000000000000000000000000DCDC000000000000000000000000000000000000
310
00000000000000000000000000000000000000000000000000000000000000000000000000000000000000000000000000000000000000000000000000000000000000000000000000000000000000000000000000000000000000000000000000000000000000000000000000000000000000000000DC0000000000000000
310
0000000000000000000000000000000000DC0000000000000000000000DC00DC0000DCDC00000000000000000000000000DCDC00000000000000000000000000000000000000000000000000000000000000000000000000000000000000000000000000000000000000000000DCDC000000DCDCDCDCDCDCDCDCDCDCDCDCDC
310
DCDCDCDCDCDCDCDCDCDCDCDCDCDC00000000000000000000000000000000000000000000000000000000000000000000000000000000000000000000000000000000000000000000000000000000000000000000000000000000000000000000000000000000000000000000000000000000000000000000DC000000000000
310
00000000000000000000000000000000000000DC0000000000000000000000DCDC0000DC00DC00000000000000000000000000DCDC00000000000000000000000000000000000000000000000000000000000000000000000000000000000000000000000000000000000000000000DCDC000000DCDCDCDCDCDCDCDCDCDCDC
310
DCDCDCDCDCDCDCDCDCDCDCDCDCDCDC00000000000000000000000000000000000000000000000000000000000000000000000000000000000000000000000000000000000000000000000000000000000000000000000000000000000000000000000000000000000000000000000000000000000000000000DC0000000000
310
000000000000000000000000000000000000000000DC0000000000000000000000DC0000DC0000DC00000000000000000000000000DCDC00000000000000000000000000000000000000000000000000000000000000000000000000000000000000000000000000000000000000000000DCDC000000000000000000000000
310
000000000000000000000000000000000000000000000000000000000000000000000000000000000000000000000000000000000000000000000000000000000000000000000000000000000000000000000000DCDCDCDCDCDCDCDCDCDCDCDCDCDCDCDCDCDCDCDCDCDCDCDC000000000000000000000000000000DC000000
310
0000000000000000000000000000000000000000000000DC0000000000000000000000DC00DC0000DCDC00000000000000000000000000DCDC00000000000000000000000000000000000000000000000000000000000000000000000000000000000000000000000000000000000000000000DCDC00000000000000000000
310
0000000000000000000000000000000000000000000000000000000000000000000000000000000000000000000000000000000000000000000000000000000000000000000000000000000000000000000000000000DCDCDCDCDCDCDCDCDCDCDCDCDCDCDCDCDCDCDCDCDCDCDCDC0000000000000000000000000000DC0000
310
00000000000000000000000000000000000000000000000000DC00000000000000000000000000000000000000000000000000000000000000DCDC00000000000000000000000000000000000000000000000000000000000000000000000000000000000000000000000000000000000000000000DCDC0000000000000000
310
000000000000000000000000000000000000000000000000000000000000000000000000000000000000000000000000000000000000000000000000000000000000000000000000000000000000000000000000000000DCDCDCDCDC00000000000000000000000000000000000000000000000000000000000000000000DC
310
0000000000000000000000000000000000000000000000000000DC0000000000000000000000000000000000000000000000000000000000000000DCDC00000000000000000000000000000000000000000000000000000000000000000000000000000000000000000000000000000000000000000000DCDC000000000000
310
0000000000000000000000000000000000000000000000000000000000000000000000000000000000000000000000000000000000000000000000000000000000000000000000000000000000000000000000000000000000DCDC000000000000000000000000000000000000000000000000000000000000000000000000
310
DC000000000000000000000000000000000000000000000000000000DC0000000000000000000000000000000000000000000000000000000000000000DCDC00000000000000000000000000000000000000000000000000000000000000000000000000000000000000000000000000000000000000000000DCDC00000000
310
0000000000000000000000000000000000000000000000000000000000000000000000000000000000000000000000000000000000000000000000000000000000000000000000000000000000000000000000000000000000000000DCDCDCDCDCDCDCDCDCDCDCDCDCDCDCDCDCDCDCDCDC0000000000000000000000000000
310
0000DC000000000000000000000000000000000000000000000000000000DC0000000000000000000000000000000000000000000000000000000000000000DCDC00000000000000000000000000000000000000000000000000000000000000000000000000000000000000000000000000000000000000000000DCDC0000
310
00000000000000000000000000000000000000000000000000000000000000000000000000000000000000000000000000000000000000000000000000000000000000000000000000000000000000000000000000000000000000000000DCDCDCDCDCDCDCDCDCDCDCDCDCDCDCDCDCDCDCDCDC000000000000000000000000
310
000000DC00000000000000000000000000000000000000000000000000000000DC0000000000000000000000000000000000000000000000000000000000000000DCDC00000000000000000000000000000000000000000000000000000000000000000000000000000000000000000000000000000000000000000000DCDC
310
0000000000000000000000000000000000000000000000000000000000000000000000000000000000000000000000000000000000000000000000000000000000000000000000000000000000000000000000000000000000000000000000DCDCDCDC00000000000000000000000000000000000000000000000000000000
310
0000000000DC0000000000000000DCDCDCDCDCDC0000000000000000000000000000DC0000000000000000000000000000000000000000000000000000000000000000DCDC00000000000000000000000000000000000000000000000000000000000000000000000000000000000000000000000000000000000000000000
310
DCDC0000000000000000000000000000000000000000000000000000000000000000000000000000000000000000000000000000000000000000000000000000000000000000000000000000000000000000000000000000000000000000000000DCDCDCDC0000000000000000000000000000000000000000000000000000
310
000000000000DC000000000000000000DCDCDCDCDCDC00000000000000000000000000DC000000000000000000000000000000000000000000000000000000000000000000DCDC0000000000000000000000000000000000000000000000000000000000000000000000000000000000000000000000000000000000000000
310
0000DCDC0000000000000000000000000000000000000000000000000000000000000000000000000000000000000000000000000000000000000000000000000000000000000000000000000000000000000000000000000000000000000000000000DCDC0000000000000000000000000000000000000000000000000000
310
0000000000000000DC000000000000000000DCDCDCDCDCDCDCDCDCDCDCDCDCDCDCDCDC0000DC000000000000000000000000000000000000000000000000000000000000000000DCDC000000000000000000000000000000000000000000000000000000000000000000000000000000000000000000000000000000000000
310
00000000DCDC00000000000000000000000000000000000000000000000000000000000000000000000000000000000000000000000000000000000000000000000000000000000000000000000000000000000000000000000000000000000000000000000000000000000000000000000000000000000000000000000000
310
000000000000000000DC00000000000000000000DCDCDCDCDCDCDCDCDCDCDCDCDCDCDCDC0000DCDC000000000000000000000000000000000000000000000000000000000000000000DCDC00000000000000000000000000000000000000000000000000000000000000000000000000000000000000000000000000000000
310
000000000000DCDC0000000000000000000000000000000000000000000000000000000000000000000000000000000000000000000000000000000000000000000000000000000000000000000000000000000000000000000000000000000000000000000000DCDCDCDCDCDCDCDCDCDCDCDCDCDCDCDCDCDCDCDCDCDCDCDC
310
DCDCDCDCDCDCDC00000000DC000000000000000000000000000000000000000000000000000000000000000000000000000000000000000000000000000000000000000000000000000000DCDC0000000000000000000000000000000000000000000000000000000000000000000000000000000000000000000000000000
310
0000000000F50000DCDCDCDCDCDCDCDCDCDCDCDCDCDCDCDCDCDCDCDCDCDCDCDCDCDCDCDCDCDCDCDCDCDCDCDCDCDCDCDCDCDCDCDCDCDCDCDCDCDCDCDCDCDCDCDCDCDCDCDCDCDCDCDCDCDCDCDCDCDCDCDCDCDC0000000000000000000000000000000000000000000000DCDCDCDCDCDCDCDCDCDCDCDCDCDCDCDCDCDCDCDCDCDC
310
DCDCDCDCDCDCDCDC00000000DC00000000000000000000000000000000000000000000000000000000000000000000000000000000000000000000000000000000000000000000000000000000DCDC0000F5000000000000000000000000000000000000000000000000000000000000000000000000000000000000000000
310
00000000000000F50000DCDCDCDCDCDCDCDCDCDCDCDCDCDCDCDCDCDCDCDCDCDCDCDCDCDCDCDCDCDCDCDCDCDCDCDCDCDCDCDCDCDCDCDCDCDCDCDCDCDCDCDCDCDCDCDCDCDCDCDCDCDCDCDCDCDCDCDCDCDCDCDCDC000000000000000000000000000000000000000000000000DCDCDCDCDCDCDCDCDCDCDCDCDCDCDCDCDCDCDCDC
310
DCDCDCDCDC000000000000000000DC00000000000000000000000000000000000000000000000000000000000000000000000000000000000000000000000000000000000000000000000000000000DCDC0000F500000000000000000000000000000000000000000000000000000000000000000000000000000000000000
310
000000000000000000F50000DCDCDCDCDCDCDCDCDCDCDCDCDCDCDCDCDCDCDCDCDCDCDCDCDCDCDCDCDCDCDCDCDCDCDCDCDCDCDCDCDCDCDCDCDCDCDCDCDCDCDCDCDCDCDCDCDCDCDCDCDCDCDCDCDCDCDCDCDCDCDCDCDC000000000000000000000000000000000000000000000000DCDCDCDCDCDCDCDCDCDCDCDCDCDCDCDCDCDC
310
DCDCDCDCDCDCDC00DCDCDCDCDCDCDCDC0000000000000000000000000000000000000000000000000000000000000000000000000000000000000000000000000000000000000000000000000000000000DCDC0000F50000000000000000000000000000000000000000000000000000000000000000000000000000000000
310
0000000000000000000000F50000DCDCDCDCDCDCDCDCDCDCDCDCDCDCDCDCDCDCDCDCDCDCDCDCDCDCDCDCDCDCDCDCDCDCDCDCDCDCDCDCDCDCDCDCDCDCDCDCDCDCDCDCDCDCDCDCDCDCDCDCDCDCDCDCDCDCDCDCDCDCDCDCDC00000000000000000000000000000000000000000000000000000000000000000000000000000000
310
0000000000000000000000000000000000000000000000000000000000000000000000000000000000000000000000000000000000000000000000000000000000000000000000000000000000000000000000DCDC0000F5000000000000000000000000000000000000000000000000000000000000000000000000000000
310
00000000000000000000000000F50000DCDC00000000000000000000000000000000000000000000000000000000000000000000000000000000000000000000000000000000000000000000000000000000000000000000000000000000000000000000000000000000000000000000000000000000000000000000000000
310
00000000000000000000000000000000000000000000000000000000000000000000000000000000000000000000000000000000000000000000000000000000000000000000000000000000000000000000000000DCDC0000F500000000000000000000000000000000000000000000000000000000000000000000000000
310
000000000000000000000000000000F50000DCDC0000000000000000000000000000000000000000000000000000000000000000000000000000000000000000000000000000000000000000000000000000000000000000000000000000000000000000000000000000000000000000000000000000000000000000000000
310
000000000000000000000000000000000000000000000000000000000000000000000000000000000000000000000000000000000000000000000000000000000000000000000000000000000000000000000000000000DCDC0000F50000000000000000000000000000000000000000000000000000000000000000000000
310
0000000000000000000000000000000000F50000DCDCDCDCDCDCDCDCDCDCDCDCDCDCDCDCDCDCDCDCDCDCDCDCDCDCDCDCDCDCDCDCDCDCDCDCDCDCDCDCDCDCDCDCDCDCDCDCDCDCDCDCDCDCDCDCDCDCDCDCDCDCDCDCDCDCDCDCDCDCDCDCDCDCDCDCDCDCDCDCDCDCDCDCDCDCDCDCDCDCDCDCDCDCDCDCDCDCDCDCDCDCDCDCDCDCDC
310
DCDCDCDCDCDCDCDCDCDCDCDCDCDCDCDCDCDCDCDCDCDCDCDCDCDCDCDCDCDCDCDCDCDCDCDCDCDCDCDCDCDCDCDCDCDCDCDCDCDCDCDCDCDCDCDCDCDCDCDCDCDCDCDCDCDCDCDCDCDCDCDCDCDCDCDCDCDCDCDCDCDCDCDCDCDCDCDCDCDCDC0000F5000000000000000000000000000000000000000000000000000000000000000000
310
00000000000000000000000000000000000000F50000000000000000000000000000000000000000000000000000000000000000000000000000000000000000000000000000000000000000000000000000000000000000000000000000000000000000000000000000000000000000000000000000000000000000000000
310
0000000000000000000000000000000000000000000000000000000000000000000000000000000000000000000000000000000000000000000000000000000000000000000000000000000000000000000000000000000000000000000000F500000000000000000000000000000000000000000000000000000000000000
310
000000000000000000000000000000000000000000F5000000000000000000000000000000000000000000000000000000000000000000000000000000000000000000000000000000000000000000000000000000000000000000000000000000000000000000000000000000000000000000000000000000000000000000
310
00000000000000000000000000000000000000000000000000000000000000000000000000000000000000000000000000000000000000000000000000000000000000000000000000000000000000000000000000000000000000000000000000F50000000000000000000000000000000000000000000000000000000000
310
0000000000000000000000000000F5F5F5F5F5F5F5F5F5F5F5F5F5F5F500F5F5F5F5000000000000000000000000000000000000000000000000000000000000000000000000000000000000000000000000000000000000000000000000000000000000000000000000000000000000000000000000000000000000000000
310
0000000000000000000000000000000000000000000000000000000000000000000000000000000000000000000000000000000000000000000000000000000000000000000000000000000000000000000000000000000000F5F5F5F500F5F5F5F5F5F5F5F5F5F5F5F5F5F5F5000000000000000000000000000000000000
310
00000000000000000000000000000000000000000000000000F50000000000000000000000000000000000000000000000000000000000000000000000000000000000000000000000000000000000000000000000000000000000000000000000000000000000000000000000000000000000000000000000000000000000
310
0000000000000000000000000000000000000000000000000000000000000000000000000000000000000000000000000000000000000000000000000000000000000000000000000000000000000000000000000000000000000000000000000000000000F500000000000000000000000000000000000000000000000000
310
000000000000000000000000000000000000000000000000000000F5000000000000000000000000000000000000000000000000000000000000000000000000000000000000000000000000000000000000000000000000000000000000000000000000000000000000000000000000000000000000000000000000000000
310
00000000000000000000000000000000000000000000000000000000000000000000000000000000000000000000000000000000000000000000000000000000000000000000000000000000000000000000000000000000000000000000000000000000000000F50000000000000000000000000000000000000000000000
310
0000000000000000000000000000000000000000000000000000000000F500000000000000000000000000000000000000000000000000000000000000000000000000000000000000000000000000000000000000000000000000000000000000000000000000000000000000000000000000000000000000000000000000
310
000000000000000000000000000000000000000000000000000000000000000000000000000000000000000000000000000000000000000000000000000000000000000000000000000000000000000000000000000000000000000000000000000000000000000000F5000000000000000000000000000000000000000000
310
00000000000000000000000000000000000000000000000000000000000000F50000000000000000000000000000000000000000000000000000000000000000000000000000000000000000000000000000000000000000000000000000000000000000000000000000000000000000000000000000000000000000000000
310
0000000000000000000000000000000000000000000000000000000000000000000000000000000000000000000000000000000000000000000000000000000000000000000000000000000000000000000000000000000000000000000000000000000000000000000000F500000000000000000000000000000000000000
310
000000000000000000000000000000000000000000000000000000000000000000F5000000000000000000000000000000000000000000000000000000000000000000000000000000000000000000000000000000000000000000000000000000000000000000000000000000000000000000000000000000000000000000
310
00000000000000000000000000000000000000000000000000000000000000000000000000000000000000000000000000000000000000000000000000000000000000000000000000000000000000000000000000000000000000000000000000000000000000000000000000F50000000000000000000000000000000000
310
00000000000000000000000000000000000000000000000000000000000000000000000000000000000000000000000000000000000000000000000000000000000000000000000000000000000000000000000000000000000000000000000000000000000000000000000000000000000000000000000000000000000000
310
00000000000000000000000000000000000000000000000000000000000000000000000000000000000000000000000000000000000000000000000000000000000000000000000000000000000000000000000000000000000000000000000000000000000000000000000000000000000000000000000000000000000000
310
00000000000000000000000000000000000000000000000000000000000000000000000000F50000000000000000000000000000000000000000000000000000000000000000000000000000000000000000000000000000000000000000000000000000000000000000000000000000000000000000000000000000000000
310
0000000000000000000000000000000000000000000000000000000000000000000000000000000000000000000000000000000000000000000000000000000000000000000000000000000000000000000000000000000000000000000000000000000000000000000000000000000000F500000000000000000000000000
310
000000000000000000000000000000000000000000000000000000000000000000000000000000F5000000000000000000000000000000000000000000000000000000000000000000000000000000000000000000000000000000000000000000000000000000000000000000000000000000000000000000000000000000
310
00000000000000000000000000000000000000000000000000000000000000000000000000000000000000000000000000000000000000000000000000000000000000000000000000000000000000000000000000000000000000000000000000000000000000000000000000000000000000F50000000000000000000000
310
0000000000000000000000000000000000000000000000000000000000000000000000000000000000F500000000000000000000000000000000000000000000000000000000000000000000000000000000000000000000000000000000000000000000000000000000000000000000000000000000000000000000000000
310
000000000000000000000000000000000000000000000000000000000000000000000000000000000000000000000000000000000000000000000000000000000000000000000000000000000000000000000000000000000000000000000000000000000000000000000000000000000000000000F5000000000000000000
310
00000000000000000000000000000000000000000000000000000000000000000000000000000000000000000000000000000000000000000000000000000000000000000000000000000000000000000000000000000000000000000000000000000000000000000000000000000000000000000000000000000000000000
310
00000000000000000000000000000000000000000000000000000000000000000000000000000000000000000000000000000000000000000000000000000000000000000000000000000000000000000000000000000000000000000000000000000000000000000000000000000000000000000000000000000000000000
310
00000000000000000000000000000000000000
  0
XRECORD
  5
68D
102
{ACAD_REACTORS
330
68B
102
}
330
68B
100
AcDbXrecord
280
     1
270
     1
271
     1
  0
XRECORD
  5
68C
102
{ACAD_REACTORS
330
68B
102
}
330
68B
100
AcDbXrecord
280
     1
270
     1
271
     1
  0
XRECORD
  5
690
102
{ACAD_REACTORS
330
68B
102
}
330
68B
100
AcDbXrecord
280
     1
270
     1
271
     1
  0
XRECORD
  5
68F
102
{ACAD_REACTORS
330
68B
102
}
330
68B
100
AcDbXrecord
280
     1
270
     1
271
     1
  0
XRECORD
  5
691
102
{ACAD_REACTORS
330
68B
102
}
330
68B
100
AcDbXrecord
280
     1
270
     1
271
     1
  0
XRECORD
  5
68E
102
{ACAD_REACTORS
330
68B
102
}
330
68B
100
AcDbXrecord
280
     1
270
     1
271
     1
  0
XRECORD
  5
685
102
{ACAD_REACTORS
330
683
102
}
330
683
100
AcDbXrecord
280
     1
270
     1
271
     1
  0
XRECORD
  5
684
102
{ACAD_REACTORS
330
683
102
}
330
683
100
AcDbXrecord
280
     1
270
     1
271
     1
  0
XRECORD
  5
688
102
{ACAD_REACTORS
330
683
102
}
330
683
100
AcDbXrecord
280
     1
270
     1
271
     1
  0
XRECORD
  5
687
102
{ACAD_REACTORS
330
683
102
}
330
683
100
AcDbXrecord
280
     1
270
     1
271
     1
  0
XRECORD
  5
689
102
{ACAD_REACTORS
330
683
102
}
330
683
100
AcDbXrecord
280
     1
270
     1
271
     1
  0
XRECORD
  5
686
102
{ACAD_REACTORS
330
683
102
}
330
683
100
AcDbXrecord
280
     1
270
     1
271
     1
  0
XRECORD
  5
695
102
{ACAD_REACTORS
330
693
102
}
330
693
100
AcDbXrecord
280
     1
270
     1
271
     1
  0
XRECORD
  5
694
102
{ACAD_REACTORS
330
693
102
}
330
693
100
AcDbXrecord
280
     1
270
     1
271
     1
  0
XRECORD
  5
698
102
{ACAD_REACTORS
330
693
102
}
330
693
100
AcDbXrecord
280
     1
270
     1
271
     1
  0
XRECORD
  5
697
102
{ACAD_REACTORS
330
693
102
}
330
693
100
AcDbXrecord
280
     1
270
     1
271
     1
  0
XRECORD
  5
699
102
{ACAD_REACTORS
330
693
102
}
330
693
100
AcDbXrecord
280
     1
270
     1
271
     1
  0
XRECORD
  5
696
102
{ACAD_REACTORS
330
693
102
}
330
693
100
AcDbXrecord
280
     1
270
     1
271
     1
  0
CELLSTYLEMAP
  5
7BE
102
{ACAD_REACTORS
330
7BD
102
}
330
7BD
100
AcDbCellStyleMap
 90
        3
300
CELLSTYLE
  1
TABLEFORMAT_BEGIN
 90
        5
170
     1
 91
        0
 92
    32768
 62
   257
 93
        1
300
CONTENTFORMAT
  1
CONTENTFORMAT_BEGIN
 90
        0
 91
        0
 92
      512
 93
        0
300

 40
0.0
140
1.0
 94
        5
 62
     0
340
F
144
0.25
309
CONTENTFORMAT_END
171
     0
 94
        0
309
TABLEFORMAT_END
  1
CELLSTYLE_BEGIN
 90
        1
 91
        1
300
_TITLE
309
CELLSTYLE_END
300
CELLSTYLE
  1
TABLEFORMAT_BEGIN
 90
        5
170
     1
 91
        0
 92
        0
 62
   257
 93
        1
300
CONTENTFORMAT
  1
CONTENTFORMAT_BEGIN
 90
        0
 91
        0
 92
      512
 93
        0
300

 40
0.0
140
1.0
 94
        5
 62
     0
340
F
144
0.18
309
CONTENTFORMAT_END
171
     0
 94
        0
309
TABLEFORMAT_END
  1
CELLSTYLE_BEGIN
 90
        2
 91
        1
300
_HEADER
309
CELLSTYLE_END
300
CELLSTYLE
  1
TABLEFORMAT_BEGIN
 90
        5
170
     1
 91
        0
 92
        0
 62
   257
 93
        1
300
CONTENTFORMAT
  1
CONTENTFORMAT_BEGIN
 90
        0
 91
        0
 92
      512
 93
        0
300

 40
0.0
140
1.0
 94
        2
 62
     0
340
F
144
0.18
309
CONTENTFORMAT_END
171
     0
 94
        0
309
TABLEFORMAT_END
  1
CELLSTYLE_BEGIN
 90
        3
 91
        2
300
_DATA
309
CELLSTYLE_END
  0
XRECORD
  5
7CB
102
{ACAD_REACTORS
330
7CA
102
}
330
7CA
100
AcDbXrecord
280
     1
102
RTVSPropertyOp0
 70
     1
102
RTVSPropertyOp1
 70
     1
102
RTVSPropertyOp2
 70
     1
102
RTVSPropertyOp3
 70
     1
102
RTVSPropertyOp4
 70
     1
102
RTVSPropertyOp5
 70
     1
102
RTVSPropertyOp6
 70
     1
102
RTVSPropertyOp7
 70
     1
102
RTVSPropertyOp8
 70
     1
102
RTVSPropertyOp9
 70
     1
102
RTVSPropertyOp10
 70
     1
102
RTVSPropertyOp11
 70
     1
102
RTVSPropertyOp12
 70
     1
102
RTVSPropertyOp13
 70
     1
102
RTVSPropertyOp14
 70
     1
102
RTVSPropertyOp15
 70
     1
102
RTVSPropertyOp16
 70
     1
102
RTVSPropertyOp17
 70
     1
102
RTVSPropertyOp18
 70
     1
102
RTVSPropertyOp19
 70
     1
102
RTVSPropertyOp20
 70
     1
102
RTVSPropertyOp21
 70
     1
102
RTVSPropertyOp22
 70
     1
102
RTVSPropertyOp23
 70
     1
102
RTVSPropertyOp24
 70
     1
102
RTVSPropertyOp25
 70
     1
102
RTVSPropertyOp26
 70
     1
102
RTVSPropertyOp27
 70
     1
102
RTVSPropertyOp28
 70
     1
102
RTVSPropertyOp29
 70
     1
102
RTVSPropertyOp30
 70
     1
102
RTVSPropertyOp31
 70
     1
102
RTVSPropertyOp32
 70
     1
  0
XRECORD
  5
7C9
102
{ACAD_REACTORS
330
7C8
102
}
330
7C8
100
AcDbXrecord
280
     1
102
RTVSPropertyOp0
 70
     1
102
RTVSPropertyOp1
 70
     1
102
RTVSPropertyOp2
 70
     1
102
RTVSPropertyOp3
 70
     1
102
RTVSPropertyOp4
 70
     1
102
RTVSPropertyOp5
 70
     1
102
RTVSPropertyOp6
 70
     1
102
RTVSPropertyOp7
 70
     1
102
RTVSPropertyOp8
 70
     1
102
RTVSPropertyOp9
 70
     1
102
RTVSPropertyOp10
 70
     1
102
RTVSPropertyOp11
 70
     1
102
RTVSPropertyOp12
 70
     1
102
RTVSPropertyOp13
 70
     1
102
RTVSPropertyOp14
 70
     1
102
RTVSPropertyOp15
 70
     1
102
RTVSPropertyOp16
 70
     1
102
RTVSPropertyOp17
 70
     1
102
RTVSPropertyOp18
 70
     1
102
RTVSPropertyOp19
 70
     1
102
RTVSPropertyOp20
 70
     1
102
RTVSPropertyOp21
 70
     1
102
RTVSPropertyOp22
 70
     1
102
RTVSPropertyOp23
 70
     1
102
RTVSPropertyOp24
 70
     1
102
RTVSPropertyOp25
 70
     1
102
RTVSPropertyOp26
 70
     1
102
RTVSPropertyOp27
 70
     1
102
RTVSPropertyOp28
 70
     1
102
RTVSPropertyOp29
 70
     1
102
RTVSPropertyOp30
 70
     1
102
RTVSPropertyOp31
 70
     1
102
RTVSPropertyOp32
 70
     1
  0
XRECORD
  5
7D7
102
{ACAD_REACTORS
330
7D6
102
}
330
7D6
100
AcDbXrecord
280
     1
102
RTVSPropertyOp0
 70
     1
102
RTVSPropertyOp1
 70
     1
102
RTVSPropertyOp2
 70
     1
102
RTVSPropertyOp3
 70
     1
102
RTVSPropertyOp4
 70
     1
102
RTVSPropertyOp5
 70
     1
102
RTVSPropertyOp6
 70
     1
102
RTVSPropertyOp7
 70
     1
102
RTVSPropertyOp8
 70
     1
102
RTVSPropertyOp9
 70
     1
102
RTVSPropertyOp10
 70
     1
102
RTVSPropertyOp11
 70
     1
102
RTVSPropertyOp12
 70
     1
102
RTVSPropertyOp13
 70
     1
102
RTVSPropertyOp14
 70
     1
102
RTVSPropertyOp15
 70
     1
102
RTVSPropertyOp16
 70
     1
102
RTVSPropertyOp17
 70
     1
102
RTVSPropertyOp18
 70
     1
102
RTVSPropertyOp19
 70
     1
102
RTVSPropertyOp20
 70
     1
102
RTVSPropertyOp21
 70
     1
102
RTVSPropertyOp22
 70
     1
102
RTVSPropertyOp23
 70
     1
102
RTVSPropertyOp24
 70
     1
102
RTVSPropertyOp25
 70
     1
102
RTVSPropertyOp26
 70
     1
102
RTVSPropertyOp27
 70
     1
102
RTVSPropertyOp28
 70
     1
102
RTVSPropertyOp29
 70
     1
102
RTVSPropertyOp30
 70
     1
102
RTVSPropertyOp31
 70
     1
102
RTVSPropertyOp32
 70
     1
  0
XRECORD
  5
7DF
102
{ACAD_REACTORS
330
7DE
102
}
330
7DE
100
AcDbXrecord
280
     1
102
RTVSPropertyOp0
 70
     1
102
RTVSPropertyOp1
 70
     1
102
RTVSPropertyOp2
 70
     1
102
RTVSPropertyOp3
 70
     1
102
RTVSPropertyOp4
 70
     1
102
RTVSPropertyOp5
 70
     1
102
RTVSPropertyOp6
 70
     1
102
RTVSPropertyOp7
 70
     1
102
RTVSPropertyOp8
 70
     1
102
RTVSPropertyOp9
 70
     1
102
RTVSPropertyOp10
 70
     1
102
RTVSPropertyOp11
 70
     1
102
RTVSPropertyOp12
 70
     1
102
RTVSPropertyOp13
 70
     1
102
RTVSPropertyOp14
 70
     1
102
RTVSPropertyOp15
 70
     1
102
RTVSPropertyOp16
 70
     1
102
RTVSPropertyOp17
 70
     1
102
RTVSPropertyOp18
 70
     1
102
RTVSPropertyOp19
 70
     1
102
RTVSPropertyOp20
 70
     1
102
RTVSPropertyOp21
 70
     1
102
RTVSPropertyOp22
 70
     1
102
RTVSPropertyOp23
 70
     1
102
RTVSPropertyOp24
 70
     1
102
RTVSPropertyOp25
 70
     1
102
RTVSPropertyOp26
 70
     1
102
RTVSPropertyOp27
 70
     1
102
RTVSPropertyOp28
 70
     1
102
RTVSPropertyOp29
 70
     1
102
RTVSPropertyOp30
 70
     1
102
RTVSPropertyOp31
 70
     1
102
RTVSPropertyOp32
 70
     1
  0
XRECORD
  5
7D1
102
{ACAD_REACTORS
330
7D0
102
}
330
7D0
100
AcDbXrecord
280
     1
102
RTVSPropertyOp0
 70
     1
102
RTVSPropertyOp1
 70
     1
102
RTVSPropertyOp2
 70
     1
102
RTVSPropertyOp3
 70
     1
102
RTVSPropertyOp4
 70
     1
102
RTVSPropertyOp5
 70
     1
102
RTVSPropertyOp6
 70
     1
102
RTVSPropertyOp7
 70
     1
102
RTVSPropertyOp8
 70
     1
102
RTVSPropertyOp9
 70
     1
102
RTVSPropertyOp10
 70
     1
102
RTVSPropertyOp11
 70
     1
102
RTVSPropertyOp12
 70
     1
102
RTVSPropertyOp13
 70
     1
102
RTVSPropertyOp14
 70
     1
102
RTVSPropertyOp15
 70
     1
102
RTVSPropertyOp16
 70
     1
102
RTVSPropertyOp17
 70
     1
102
RTVSPropertyOp18
 70
     1
102
RTVSPropertyOp19
 70
     1
102
RTVSPropertyOp20
 70
     1
102
RTVSPropertyOp21
 70
     1
102
RTVSPropertyOp22
 70
     1
102
RTVSPropertyOp23
 70
     1
102
RTVSPropertyOp24
 70
     1
102
RTVSPropertyOp25
 70
     1
102
RTVSPropertyOp26
 70
     1
102
RTVSPropertyOp27
 70
     1
102
RTVSPropertyOp28
 70
     1
102
RTVSPropertyOp29
 70
     1
102
RTVSPropertyOp30
 70
     1
102
RTVSPropertyOp31
 70
     1
102
RTVSPropertyOp32
 70
     1
  0
XRECORD
  5
7D5
102
{ACAD_REACTORS
330
7D4
102
}
330
7D4
100
AcDbXrecord
280
     1
102
RTVSPropertyOp0
 70
     1
102
RTVSPropertyOp1
 70
     1
102
RTVSPropertyOp2
 70
     1
102
RTVSPropertyOp3
 70
     1
102
RTVSPropertyOp4
 70
     1
102
RTVSPropertyOp5
 70
     1
102
RTVSPropertyOp6
 70
     1
102
RTVSPropertyOp7
 70
     1
102
RTVSPropertyOp8
 70
     1
102
RTVSPropertyOp9
 70
     1
102
RTVSPropertyOp10
 70
     1
102
RTVSPropertyOp11
 70
     1
102
RTVSPropertyOp12
 70
     1
102
RTVSPropertyOp13
 70
     1
102
RTVSPropertyOp14
 70
     1
102
RTVSPropertyOp15
 70
     1
102
RTVSPropertyOp16
 70
     1
102
RTVSPropertyOp17
 70
     1
102
RTVSPropertyOp18
 70
     1
102
RTVSPropertyOp19
 70
     1
102
RTVSPropertyOp20
 70
     1
102
RTVSPropertyOp21
 70
     1
102
RTVSPropertyOp22
 70
     1
102
RTVSPropertyOp23
 70
     1
102
RTVSPropertyOp24
 70
     1
102
RTVSPropertyOp25
 70
     1
102
RTVSPropertyOp26
 70
     1
102
RTVSPropertyOp27
 70
     1
102
RTVSPropertyOp28
 70
     1
102
RTVSPropertyOp29
 70
     1
102
RTVSPropertyOp30
 70
     1
102
RTVSPropertyOp31
 70
     1
102
RTVSPropertyOp32
 70
     1
  0
XRECORD
  5
7EF
102
{ACAD_REACTORS
330
7EE
102
}
330
7EE
100
AcDbXrecord
280
     1
102
RTVSPropertyOp0
 70
     0
102
RTVSPropertyOp1
 70
     0
102
RTVSPropertyOp2
 70
     0
102
RTVSPropertyOp3
 70
     0
102
RTVSPropertyOp4
 70
     0
102
RTVSPropertyOp5
 70
     0
102
RTVSPropertyOp6
 70
     0
102
RTVSPropertyOp7
 70
     0
102
RTVSPropertyOp8
 70
     0
102
RTVSPropertyOp9
 70
     0
102
RTVSPropertyOp10
 70
     0
102
RTVSPropertyOp11
 70
     0
102
RTVSPropertyOp12
 70
     0
102
RTVSPropertyOp13
 70
     0
102
RTVSPropertyOp14
 70
     2
102
RTVSPropertyOp15
 70
     0
102
RTVSPropertyOp16
 70
     0
102
RTVSPropertyOp17
 70
     0
102
RTVSPropertyOp18
 70
     0
102
RTVSPropertyOp19
 70
     0
102
RTVSPropertyOp20
 70
     0
102
RTVSPropertyOp21
 70
     0
102
RTVSPropertyOp22
 70
     0
102
RTVSPropertyOp23
 70
     0
102
RTVSPropertyOp24
 70
     0
102
RTVSPropertyOp25
 70
     0
102
RTVSPropertyOp26
 70
     0
102
RTVSPropertyOp27
 70
     0
102
RTVSPropertyOp28
 70
     0
102
RTVSPropertyOp29
 70
     0
102
RTVSPropertyOp30
 70
     0
102
RTVSPropertyOp31
 70
     0
102
RTVSPropertyOp32
 70
     0
  0
XRECORD
  5
7DD
102
{ACAD_REACTORS
330
7DC
102
}
330
7DC
100
AcDbXrecord
280
     1
102
RTVSPropertyOp0
 70
     1
102
RTVSPropertyOp1
 70
     1
102
RTVSPropertyOp2
 70
     1
102
RTVSPropertyOp3
 70
     1
102
RTVSPropertyOp4
 70
     1
102
RTVSPropertyOp5
 70
     1
102
RTVSPropertyOp6
 70
     1
102
RTVSPropertyOp7
 70
     1
102
RTVSPropertyOp8
 70
     1
102
RTVSPropertyOp9
 70
     1
102
RTVSPropertyOp10
 70
     1
102
RTVSPropertyOp11
 70
     1
102
RTVSPropertyOp12
 70
     1
102
RTVSPropertyOp13
 70
     1
102
RTVSPropertyOp14
 70
     1
102
RTVSPropertyOp15
 70
     1
102
RTVSPropertyOp16
 70
     1
102
RTVSPropertyOp17
 70
     1
102
RTVSPropertyOp18
 70
     1
102
RTVSPropertyOp19
 70
     1
102
RTVSPropertyOp20
 70
     1
102
RTVSPropertyOp21
 70
     1
102
RTVSPropertyOp22
 70
     1
102
RTVSPropertyOp23
 70
     1
102
RTVSPropertyOp24
 70
     1
102
RTVSPropertyOp25
 70
     1
102
RTVSPropertyOp26
 70
     1
102
RTVSPropertyOp27
 70
     1
102
RTVSPropertyOp28
 70
     1
102
RTVSPropertyOp29
 70
     1
102
RTVSPropertyOp30
 70
     1
102
RTVSPropertyOp31
 70
     1
102
RTVSPropertyOp32
 70
     1
  0
XRECORD
  5
7C1
102
{ACAD_REACTORS
330
7C0
102
}
330
7C0
100
AcDbXrecord
280
     1
102
RTVSPropertyOp0
 70
     1
102
RTVSPropertyOp1
 70
     1
102
RTVSPropertyOp2
 70
     1
102
RTVSPropertyOp3
 70
     1
102
RTVSPropertyOp4
 70
     1
102
RTVSPropertyOp5
 70
     1
102
RTVSPropertyOp6
 70
     1
102
RTVSPropertyOp7
 70
     1
102
RTVSPropertyOp8
 70
     1
102
RTVSPropertyOp9
 70
     1
102
RTVSPropertyOp10
 70
     1
102
RTVSPropertyOp11
 70
     1
102
RTVSPropertyOp12
 70
     1
102
RTVSPropertyOp13
 70
     1
102
RTVSPropertyOp14
 70
     1
102
RTVSPropertyOp15
 70
     1
102
RTVSPropertyOp16
 70
     1
102
RTVSPropertyOp17
 70
     1
102
RTVSPropertyOp18
 70
     1
102
RTVSPropertyOp19
 70
     1
102
RTVSPropertyOp20
 70
     1
102
RTVSPropertyOp21
 70
     1
102
RTVSPropertyOp22
 70
     1
102
RTVSPropertyOp23
 70
     1
102
RTVSPropertyOp24
 70
     1
102
RTVSPropertyOp25
 70
     1
102
RTVSPropertyOp26
 70
     1
102
RTVSPropertyOp27
 70
     1
102
RTVSPropertyOp28
 70
     1
102
RTVSPropertyOp29
 70
     1
102
RTVSPropertyOp30
 70
     1
102
RTVSPropertyOp31
 70
     1
102
RTVSPropertyOp32
 70
     1
  0
XRECORD
  5
7C3
102
{ACAD_REACTORS
330
7C2
102
}
330
7C2
100
AcDbXrecord
280
     1
102
RTVSPropertyOp0
 70
     1
102
RTVSPropertyOp1
 70
     1
102
RTVSPropertyOp2
 70
     1
102
RTVSPropertyOp3
 70
     1
102
RTVSPropertyOp4
 70
     1
102
RTVSPropertyOp5
 70
     1
102
RTVSPropertyOp6
 70
     1
102
RTVSPropertyOp7
 70
     1
102
RTVSPropertyOp8
 70
     1
102
RTVSPropertyOp9
 70
     1
102
RTVSPropertyOp10
 70
     1
102
RTVSPropertyOp11
 70
     1
102
RTVSPropertyOp12
 70
     1
102
RTVSPropertyOp13
 70
     1
102
RTVSPropertyOp14
 70
     1
102
RTVSPropertyOp15
 70
     1
102
RTVSPropertyOp16
 70
     1
102
RTVSPropertyOp17
 70
     1
102
RTVSPropertyOp18
 70
     1
102
RTVSPropertyOp19
 70
     1
102
RTVSPropertyOp20
 70
     1
102
RTVSPropertyOp21
 70
     1
102
RTVSPropertyOp22
 70
     1
102
RTVSPropertyOp23
 70
     1
102
RTVSPropertyOp24
 70
     1
102
RTVSPropertyOp25
 70
     1
102
RTVSPropertyOp26
 70
     1
102
RTVSPropertyOp27
 70
     1
102
RTVSPropertyOp28
 70
     1
102
RTVSPropertyOp29
 70
     1
102
RTVSPropertyOp30
 70
     1
102
RTVSPropertyOp31
 70
     1
102
RTVSPropertyOp32
 70
     1
  0
XRECORD
  5
7C5
102
{ACAD_REACTORS
330
7C4
102
}
330
7C4
100
AcDbXrecord
280
     1
102
RTVSPropertyOp0
 70
     1
102
RTVSPropertyOp1
 70
     1
102
RTVSPropertyOp2
 70
     1
102
RTVSPropertyOp3
 70
     1
102
RTVSPropertyOp4
 70
     1
102
RTVSPropertyOp5
 70
     1
102
RTVSPropertyOp6
 70
     1
102
RTVSPropertyOp7
 70
     1
102
RTVSPropertyOp8
 70
     1
102
RTVSPropertyOp9
 70
     1
102
RTVSPropertyOp10
 70
     1
102
RTVSPropertyOp11
 70
     1
102
RTVSPropertyOp12
 70
     1
102
RTVSPropertyOp13
 70
     1
102
RTVSPropertyOp14
 70
     1
102
RTVSPropertyOp15
 70
     1
102
RTVSPropertyOp16
 70
     1
102
RTVSPropertyOp17
 70
     1
102
RTVSPropertyOp18
 70
     1
102
RTVSPropertyOp19
 70
     1
102
RTVSPropertyOp20
 70
     1
102
RTVSPropertyOp21
 70
     1
102
RTVSPropertyOp22
 70
     1
102
RTVSPropertyOp23
 70
     1
102
RTVSPropertyOp24
 70
     1
102
RTVSPropertyOp25
 70
     1
102
RTVSPropertyOp26
 70
     1
102
RTVSPropertyOp27
 70
     1
102
RTVSPropertyOp28
 70
     1
102
RTVSPropertyOp29
 70
     1
102
RTVSPropertyOp30
 70
     1
102
RTVSPropertyOp31
 70
     1
102
RTVSPropertyOp32
 70
     1
  0
XRECORD
  5
7C7
102
{ACAD_REACTORS
330
7C6
102
}
330
7C6
100
AcDbXrecord
280
     1
102
RTVSPropertyOp0
 70
     1
102
RTVSPropertyOp1
 70
     1
102
RTVSPropertyOp2
 70
     1
102
RTVSPropertyOp3
 70
     1
102
RTVSPropertyOp4
 70
     1
102
RTVSPropertyOp5
 70
     1
102
RTVSPropertyOp6
 70
     1
102
RTVSPropertyOp7
 70
     1
102
RTVSPropertyOp8
 70
     1
102
RTVSPropertyOp9
 70
     1
102
RTVSPropertyOp10
 70
     1
102
RTVSPropertyOp11
 70
     1
102
RTVSPropertyOp12
 70
     1
102
RTVSPropertyOp13
 70
     1
102
RTVSPropertyOp14
 70
     1
102
RTVSPropertyOp15
 70
     1
102
RTVSPropertyOp16
 70
     1
102
RTVSPropertyOp17
 70
     1
102
RTVSPropertyOp18
 70
     1
102
RTVSPropertyOp19
 70
     1
102
RTVSPropertyOp20
 70
     1
102
RTVSPropertyOp21
 70
     1
102
RTVSPropertyOp22
 70
     1
102
RTVSPropertyOp23
 70
     1
102
RTVSPropertyOp24
 70
     1
102
RTVSPropertyOp25
 70
     1
102
RTVSPropertyOp26
 70
     1
102
RTVSPropertyOp27
 70
     1
102
RTVSPropertyOp28
 70
     1
102
RTVSPropertyOp29
 70
     1
102
RTVSPropertyOp30
 70
     1
102
RTVSPropertyOp31
 70
     1
102
RTVSPropertyOp32
 70
     1
  0
XRECORD
  5
7CF
102
{ACAD_REACTORS
330
7CE
102
}
330
7CE
100
AcDbXrecord
280
     1
102
RTVSPropertyOp0
 70
     1
102
RTVSPropertyOp1
 70
     1
102
RTVSPropertyOp2
 70
     1
102
RTVSPropertyOp3
 70
     1
102
RTVSPropertyOp4
 70
     1
102
RTVSPropertyOp5
 70
     1
102
RTVSPropertyOp6
 70
     1
102
RTVSPropertyOp7
 70
     1
102
RTVSPropertyOp8
 70
     1
102
RTVSPropertyOp9
 70
     1
102
RTVSPropertyOp10
 70
     1
102
RTVSPropertyOp11
 70
     1
102
RTVSPropertyOp12
 70
     1
102
RTVSPropertyOp13
 70
     1
102
RTVSPropertyOp14
 70
     1
102
RTVSPropertyOp15
 70
     1
102
RTVSPropertyOp16
 70
     1
102
RTVSPropertyOp17
 70
     1
102
RTVSPropertyOp18
 70
     1
102
RTVSPropertyOp19
 70
     1
102
RTVSPropertyOp20
 70
     1
102
RTVSPropertyOp21
 70
     1
102
RTVSPropertyOp22
 70
     1
102
RTVSPropertyOp23
 70
     1
102
RTVSPropertyOp24
 70
     1
102
RTVSPropertyOp25
 70
     1
102
RTVSPropertyOp26
 70
     1
102
RTVSPropertyOp27
 70
     1
102
RTVSPropertyOp28
 70
     1
102
RTVSPropertyOp29
 70
     1
102
RTVSPropertyOp30
 70
     1
102
RTVSPropertyOp31
 70
     1
102
RTVSPropertyOp32
 70
     1
  0
XRECORD
  5
7EB
102
{ACAD_REACTORS
330
7EA
102
}
330
7EA
100
AcDbXrecord
280
     1
102
RTVSPropertyOp0
 70
     0
102
RTVSPropertyOp1
 70
     0
102
RTVSPropertyOp2
 70
     0
102
RTVSPropertyOp3
 70
     0
102
RTVSPropertyOp4
 70
     0
102
RTVSPropertyOp5
 70
     0
102
RTVSPropertyOp6
 70
     0
102
RTVSPropertyOp7
 70
     0
102
RTVSPropertyOp8
 70
     0
102
RTVSPropertyOp9
 70
     0
102
RTVSPropertyOp10
 70
     0
102
RTVSPropertyOp11
 70
     0
102
RTVSPropertyOp12
 70
     0
102
RTVSPropertyOp13
 70
     0
102
RTVSPropertyOp14
 70
     2
102
RTVSPropertyOp15
 70
     0
102
RTVSPropertyOp16
 70
     0
102
RTVSPropertyOp17
 70
     0
102
RTVSPropertyOp18
 70
     0
102
RTVSPropertyOp19
 70
     0
102
RTVSPropertyOp20
 70
     0
102
RTVSPropertyOp21
 70
     0
102
RTVSPropertyOp22
 70
     0
102
RTVSPropertyOp23
 70
     0
102
RTVSPropertyOp24
 70
     0
102
RTVSPropertyOp25
 70
     0
102
RTVSPropertyOp26
 70
     0
102
RTVSPropertyOp27
 70
     0
102
RTVSPropertyOp28
 70
     0
102
RTVSPropertyOp29
 70
     0
102
RTVSPropertyOp30
 70
     0
102
RTVSPropertyOp31
 70
     0
102
RTVSPropertyOp32
 70
     0
  0
XRECORD
  5
7DB
102
{ACAD_REACTORS
330
7DA
102
}
330
7DA
100
AcDbXrecord
280
     1
102
RTVSPropertyOp0
 70
     1
102
RTVSPropertyOp1
 70
     1
102
RTVSPropertyOp2
 70
     1
102
RTVSPropertyOp3
 70
     1
102
RTVSPropertyOp4
 70
     1
102
RTVSPropertyOp5
 70
     1
102
RTVSPropertyOp6
 70
     1
102
RTVSPropertyOp7
 70
     1
102
RTVSPropertyOp8
 70
     1
102
RTVSPropertyOp9
 70
     1
102
RTVSPropertyOp10
 70
     1
102
RTVSPropertyOp11
 70
     1
102
RTVSPropertyOp12
 70
     1
102
RTVSPropertyOp13
 70
     1
102
RTVSPropertyOp14
 70
     1
102
RTVSPropertyOp15
 70
     1
102
RTVSPropertyOp16
 70
     1
102
RTVSPropertyOp17
 70
     1
102
RTVSPropertyOp18
 70
     1
102
RTVSPropertyOp19
 70
     1
102
RTVSPropertyOp20
 70
     1
102
RTVSPropertyOp21
 70
     1
102
RTVSPropertyOp22
 70
     1
102
RTVSPropertyOp23
 70
     1
102
RTVSPropertyOp24
 70
     1
102
RTVSPropertyOp25
 70
     1
102
RTVSPropertyOp26
 70
     1
102
RTVSPropertyOp27
 70
     1
102
RTVSPropertyOp28
 70
     1
102
RTVSPropertyOp29
 70
     1
102
RTVSPropertyOp30
 70
     1
102
RTVSPropertyOp31
 70
     1
102
RTVSPropertyOp32
 70
     1
  0
XRECORD
  5
7ED
102
{ACAD_REACTORS
330
7EC
102
}
330
7EC
100
AcDbXrecord
280
     1
102
RTVSPropertyOp0
 70
     0
102
RTVSPropertyOp1
 70
     0
102
RTVSPropertyOp2
 70
     0
102
RTVSPropertyOp3
 70
     0
102
RTVSPropertyOp4
 70
     0
102
RTVSPropertyOp5
 70
     0
102
RTVSPropertyOp6
 70
     0
102
RTVSPropertyOp7
 70
     0
102
RTVSPropertyOp8
 70
     0
102
RTVSPropertyOp9
 70
     0
102
RTVSPropertyOp10
 70
     0
102
RTVSPropertyOp11
 70
     0
102
RTVSPropertyOp12
 70
     0
102
RTVSPropertyOp13
 70
     0
102
RTVSPropertyOp14
 70
     2
102
RTVSPropertyOp15
 70
     0
102
RTVSPropertyOp16
 70
     0
102
RTVSPropertyOp17
 70
     0
102
RTVSPropertyOp18
 70
     0
102
RTVSPropertyOp19
 70
     0
102
RTVSPropertyOp20
 70
     0
102
RTVSPropertyOp21
 70
     0
102
RTVSPropertyOp22
 70
     0
102
RTVSPropertyOp23
 70
     0
102
RTVSPropertyOp24
 70
     0
102
RTVSPropertyOp25
 70
     0
102
RTVSPropertyOp26
 70
     0
102
RTVSPropertyOp27
 70
     0
102
RTVSPropertyOp28
 70
     0
102
RTVSPropertyOp29
 70
     0
102
RTVSPropertyOp30
 70
     0
102
RTVSPropertyOp31
 70
     0
102
RTVSPropertyOp32
 70
     0
  0
XRECORD
  5
7D3
102
{ACAD_REACTORS
330
7D2
102
}
330
7D2
100
AcDbXrecord
280
     1
102
RTVSPropertyOp0
 70
     1
102
RTVSPropertyOp1
 70
     1
102
RTVSPropertyOp2
 70
     1
102
RTVSPropertyOp3
 70
     1
102
RTVSPropertyOp4
 70
     1
102
RTVSPropertyOp5
 70
     1
102
RTVSPropertyOp6
 70
     1
102
RTVSPropertyOp7
 70
     1
102
RTVSPropertyOp8
 70
     1
102
RTVSPropertyOp9
 70
     1
102
RTVSPropertyOp10
 70
     1
102
RTVSPropertyOp11
 70
     1
102
RTVSPropertyOp12
 70
     1
102
RTVSPropertyOp13
 70
     1
102
RTVSPropertyOp14
 70
     1
102
RTVSPropertyOp15
 70
     1
102
RTVSPropertyOp16
 70
     1
102
RTVSPropertyOp17
 70
     1
102
RTVSPropertyOp18
 70
     1
102
RTVSPropertyOp19
 70
     1
102
RTVSPropertyOp20
 70
     1
102
RTVSPropertyOp21
 70
     1
102
RTVSPropertyOp22
 70
     1
102
RTVSPropertyOp23
 70
     1
102
RTVSPropertyOp24
 70
     1
102
RTVSPropertyOp25
 70
     1
102
RTVSPropertyOp26
 70
     1
102
RTVSPropertyOp27
 70
     1
102
RTVSPropertyOp28
 70
     1
102
RTVSPropertyOp29
 70
     1
102
RTVSPropertyOp30
 70
     1
102
RTVSPropertyOp31
 70
     1
102
RTVSPropertyOp32
 70
     1
  0
XRECORD
  5
7E9
102
{ACAD_REACTORS
330
7E8
102
}
330
7E8
100
AcDbXrecord
280
     1
102
RTVSPropertyOp0
 70
     1
102
RTVSPropertyOp1
 70
     1
102
RTVSPropertyOp2
 70
     1
102
RTVSPropertyOp3
 70
     1
102
RTVSPropertyOp4
 70
     1
102
RTVSPropertyOp5
 70
     1
102
RTVSPropertyOp6
 70
     1
102
RTVSPropertyOp7
 70
     1
102
RTVSPropertyOp8
 70
     1
102
RTVSPropertyOp9
 70
     1
102
RTVSPropertyOp10
 70
     1
102
RTVSPropertyOp11
 70
     1
102
RTVSPropertyOp12
 70
     1
102
RTVSPropertyOp13
 70
     1
102
RTVSPropertyOp14
 70
     1
102
RTVSPropertyOp15
 70
     1
102
RTVSPropertyOp16
 70
     1
102
RTVSPropertyOp17
 70
     1
102
RTVSPropertyOp18
 70
     1
102
RTVSPropertyOp19
 70
     1
102
RTVSPropertyOp20
 70
     1
102
RTVSPropertyOp21
 70
     1
102
RTVSPropertyOp22
 70
     1
102
RTVSPropertyOp23
 70
     1
102
RTVSPropertyOp24
 70
     1
102
RTVSPropertyOp25
 70
     1
102
RTVSPropertyOp26
 70
     1
102
RTVSPropertyOp27
 70
     1
102
RTVSPropertyOp28
 70
     1
102
RTVSPropertyOp29
 70
     1
102
RTVSPropertyOp30
 70
     1
102
RTVSPropertyOp31
 70
     1
102
RTVSPropertyOp32
 70
     1
  0
XRECORD
  5
7E7
102
{ACAD_REACTORS
330
7E6
102
}
330
7E6
100
AcDbXrecord
280
     1
102
RTVSPropertyOp0
 70
     1
102
RTVSPropertyOp1
 70
     1
102
RTVSPropertyOp2
 70
     1
102
RTVSPropertyOp3
 70
     1
102
RTVSPropertyOp4
 70
     1
102
RTVSPropertyOp5
 70
     1
102
RTVSPropertyOp6
 70
     1
102
RTVSPropertyOp7
 70
     1
102
RTVSPropertyOp8
 70
     1
102
RTVSPropertyOp9
 70
     1
102
RTVSPropertyOp10
 70
     1
102
RTVSPropertyOp11
 70
     1
102
RTVSPropertyOp12
 70
     1
102
RTVSPropertyOp13
 70
     1
102
RTVSPropertyOp14
 70
     1
102
RTVSPropertyOp15
 70
     1
102
RTVSPropertyOp16
 70
     1
102
RTVSPropertyOp17
 70
     1
102
RTVSPropertyOp18
 70
     1
102
RTVSPropertyOp19
 70
     1
102
RTVSPropertyOp20
 70
     1
102
RTVSPropertyOp21
 70
     1
102
RTVSPropertyOp22
 70
     1
102
RTVSPropertyOp23
 70
     1
102
RTVSPropertyOp24
 70
     1
102
RTVSPropertyOp25
 70
     1
102
RTVSPropertyOp26
 70
     1
102
RTVSPropertyOp27
 70
     1
102
RTVSPropertyOp28
 70
     1
102
RTVSPropertyOp29
 70
     1
102
RTVSPropertyOp30
 70
     1
102
RTVSPropertyOp31
 70
     1
102
RTVSPropertyOp32
 70
     1
  0
XRECORD
  5
7E1
102
{ACAD_REACTORS
330
7E0
102
}
330
7E0
100
AcDbXrecord
280
     1
102
RTVSPropertyOp0
 70
     1
102
RTVSPropertyOp1
 70
     1
102
RTVSPropertyOp2
 70
     1
102
RTVSPropertyOp3
 70
     1
102
RTVSPropertyOp4
 70
     1
102
RTVSPropertyOp5
 70
     1
102
RTVSPropertyOp6
 70
     1
102
RTVSPropertyOp7
 70
     1
102
RTVSPropertyOp8
 70
     1
102
RTVSPropertyOp9
 70
     1
102
RTVSPropertyOp10
 70
     1
102
RTVSPropertyOp11
 70
     1
102
RTVSPropertyOp12
 70
     1
102
RTVSPropertyOp13
 70
     1
102
RTVSPropertyOp14
 70
     1
102
RTVSPropertyOp15
 70
     1
102
RTVSPropertyOp16
 70
     1
102
RTVSPropertyOp17
 70
     1
102
RTVSPropertyOp18
 70
     1
102
RTVSPropertyOp19
 70
     1
102
RTVSPropertyOp20
 70
     1
102
RTVSPropertyOp21
 70
     1
102
RTVSPropertyOp22
 70
     1
102
RTVSPropertyOp23
 70
     1
102
RTVSPropertyOp24
 70
     1
102
RTVSPropertyOp25
 70
     1
102
RTVSPropertyOp26
 70
     1
102
RTVSPropertyOp27
 70
     1
102
RTVSPropertyOp28
 70
     1
102
RTVSPropertyOp29
 70
     1
102
RTVSPropertyOp30
 70
     1
102
RTVSPropertyOp31
 70
     1
102
RTVSPropertyOp32
 70
     1
  0
XRECORD
  5
7E3
102
{ACAD_REACTORS
330
7E2
102
}
330
7E2
100
AcDbXrecord
280
     1
102
RTVSPropertyOp0
 70
     1
102
RTVSPropertyOp1
 70
     1
102
RTVSPropertyOp2
 70
     1
102
RTVSPropertyOp3
 70
     1
102
RTVSPropertyOp4
 70
     1
102
RTVSPropertyOp5
 70
     1
102
RTVSPropertyOp6
 70
     1
102
RTVSPropertyOp7
 70
     1
102
RTVSPropertyOp8
 70
     1
102
RTVSPropertyOp9
 70
     1
102
RTVSPropertyOp10
 70
     1
102
RTVSPropertyOp11
 70
     1
102
RTVSPropertyOp12
 70
     1
102
RTVSPropertyOp13
 70
     1
102
RTVSPropertyOp14
 70
     1
102
RTVSPropertyOp15
 70
     1
102
RTVSPropertyOp16
 70
     1
102
RTVSPropertyOp17
 70
     1
102
RTVSPropertyOp18
 70
     1
102
RTVSPropertyOp19
 70
     1
102
RTVSPropertyOp20
 70
     1
102
RTVSPropertyOp21
 70
     1
102
RTVSPropertyOp22
 70
     1
102
RTVSPropertyOp23
 70
     1
102
RTVSPropertyOp24
 70
     1
102
RTVSPropertyOp25
 70
     1
102
RTVSPropertyOp26
 70
     1
102
RTVSPropertyOp27
 70
     1
102
RTVSPropertyOp28
 70
     1
102
RTVSPropertyOp29
 70
     1
102
RTVSPropertyOp30
 70
     1
102
RTVSPropertyOp31
 70
     1
102
RTVSPropertyOp32
 70
     1
  0
XRECORD
  5
7D9
102
{ACAD_REACTORS
330
7D8
102
}
330
7D8
100
AcDbXrecord
280
     1
102
RTVSPropertyOp0
 70
     1
102
RTVSPropertyOp1
 70
     1
102
RTVSPropertyOp2
 70
     1
102
RTVSPropertyOp3
 70
     1
102
RTVSPropertyOp4
 70
     1
102
RTVSPropertyOp5
 70
     1
102
RTVSPropertyOp6
 70
     1
102
RTVSPropertyOp7
 70
     1
102
RTVSPropertyOp8
 70
     1
102
RTVSPropertyOp9
 70
     1
102
RTVSPropertyOp10
 70
     1
102
RTVSPropertyOp11
 70
     1
102
RTVSPropertyOp12
 70
     1
102
RTVSPropertyOp13
 70
     1
102
RTVSPropertyOp14
 70
     1
102
RTVSPropertyOp15
 70
     1
102
RTVSPropertyOp16
 70
     1
102
RTVSPropertyOp17
 70
     1
102
RTVSPropertyOp18
 70
     1
102
RTVSPropertyOp19
 70
     1
102
RTVSPropertyOp20
 70
     1
102
RTVSPropertyOp21
 70
     1
102
RTVSPropertyOp22
 70
     1
102
RTVSPropertyOp23
 70
     1
102
RTVSPropertyOp24
 70
     1
102
RTVSPropertyOp25
 70
     1
102
RTVSPropertyOp26
 70
     1
102
RTVSPropertyOp27
 70
     1
102
RTVSPropertyOp28
 70
     1
102
RTVSPropertyOp29
 70
     1
102
RTVSPropertyOp30
 70
     1
102
RTVSPropertyOp31
 70
     1
102
RTVSPropertyOp32
 70
     1
  0
XRECORD
  5
7CD
102
{ACAD_REACTORS
330
7CC
102
}
330
7CC
100
AcDbXrecord
280
     1
102
RTVSPropertyOp0
 70
     1
102
RTVSPropertyOp1
 70
     1
102
RTVSPropertyOp2
 70
     1
102
RTVSPropertyOp3
 70
     1
102
RTVSPropertyOp4
 70
     1
102
RTVSPropertyOp5
 70
     1
102
RTVSPropertyOp6
 70
     1
102
RTVSPropertyOp7
 70
     1
102
RTVSPropertyOp8
 70
     1
102
RTVSPropertyOp9
 70
     1
102
RTVSPropertyOp10
 70
     1
102
RTVSPropertyOp11
 70
     1
102
RTVSPropertyOp12
 70
     1
102
RTVSPropertyOp13
 70
     1
102
RTVSPropertyOp14
 70
     1
102
RTVSPropertyOp15
 70
     1
102
RTVSPropertyOp16
 70
     1
102
RTVSPropertyOp17
 70
     1
102
RTVSPropertyOp18
 70
     1
102
RTVSPropertyOp19
 70
     1
102
RTVSPropertyOp20
 70
     1
102
RTVSPropertyOp21
 70
     1
102
RTVSPropertyOp22
 70
     1
102
RTVSPropertyOp23
 70
     1
102
RTVSPropertyOp24
 70
     1
102
RTVSPropertyOp25
 70
     1
102
RTVSPropertyOp26
 70
     1
102
RTVSPropertyOp27
 70
     1
102
RTVSPropertyOp28
 70
     1
102
RTVSPropertyOp29
 70
     1
102
RTVSPropertyOp30
 70
     1
102
RTVSPropertyOp31
 70
     1
102
RTVSPropertyOp32
 70
     1
  0
XRECORD
  5
7E5
102
{ACAD_REACTORS
330
7E4
102
}
330
7E4
100
AcDbXrecord
280
     1
102
RTVSPropertyOp0
 70
     1
102
RTVSPropertyOp1
 70
     1
102
RTVSPropertyOp2
 70
     1
102
RTVSPropertyOp3
 70
     1
102
RTVSPropertyOp4
 70
     1
102
RTVSPropertyOp5
 70
     1
102
RTVSPropertyOp6
 70
     1
102
RTVSPropertyOp7
 70
     1
102
RTVSPropertyOp8
 70
     1
102
RTVSPropertyOp9
 70
     1
102
RTVSPropertyOp10
 70
     1
102
RTVSPropertyOp11
 70
     1
102
RTVSPropertyOp12
 70
     1
102
RTVSPropertyOp13
 70
     1
102
RTVSPropertyOp14
 70
     1
102
RTVSPropertyOp15
 70
     1
102
RTVSPropertyOp16
 70
     1
102
RTVSPropertyOp17
 70
     1
102
RTVSPropertyOp18
 70
     1
102
RTVSPropertyOp19
 70
     1
102
RTVSPropertyOp20
 70
     1
102
RTVSPropertyOp21
 70
     1
102
RTVSPropertyOp22
 70
     1
102
RTVSPropertyOp23
 70
     1
102
RTVSPropertyOp24
 70
     1
102
RTVSPropertyOp25
 70
     1
102
RTVSPropertyOp26
 70
     1
102
RTVSPropertyOp27
 70
     1
102
RTVSPropertyOp28
 70
     1
102
RTVSPropertyOp29
 70
     1
102
RTVSPropertyOp30
 70
     1
102
RTVSPropertyOp31
 70
     1
102
RTVSPropertyOp32
 70
     1
  0
ENDSEC
  0
EOF
